ISO-10303-21;
HEADER;
FILE_DESCRIPTION (( 'STEP AP203' ),
    '1' );
FILE_NAME ('08dc.STEP',
    '2022-06-20T10:15:29',
    ( '' ),
    ( '' ),
    'SwSTEP 2.0',
    'SolidWorks 2019',
    '' );
FILE_SCHEMA (( 'CONFIG_CONTROL_DESIGN' ));
ENDSEC;

DATA;
#1 = EDGE_LOOP ( 'NONE', ( #48, #7, #178, #176 ) ) ;
#2 = CALENDAR_DATE ( 2022, 20, 6 ) ;
#3 = COORDINATED_UNIVERSAL_TIME_OFFSET ( 1, 0, .AHEAD. ) ;
#4 = DATE_AND_TIME ( #2, #36 ) ;
#5 = ORIENTED_EDGE ( 'NONE', *, *, #32, .T. ) ;
#6 = PERSON_AND_ORGANIZATION_ROLE ( 'design_supplier' ) ;
#7 = ORIENTED_EDGE ( 'NONE', *, *, #219, .F. ) ;
#8 = APPROVAL_DATE_TIME ( #294, #62 ) ;
#9 = CIRCLE ( 'NONE', #235, 3.000000000000000444 ) ;
#10 = EDGE_CURVE ( 'NONE', #74, #110, #242, .T. ) ;
#11 = CIRCLE ( 'NONE', #220, 1.700000000000000400 ) ;
#12 = APPROVAL_PERSON_ORGANIZATION ( #224, #88, #156 ) ;
#13 = DIRECTION ( 'NONE',  ( 1.000000000000000000, 0.000000000000000000, 0.000000000000000000 ) ) ;
#14 = LINE ( 'NONE', #93, #55 ) ;
#15 = AXIS2_PLACEMENT_3D ( 'NONE', #271, #63, #160 ) ;
#16 = EDGE_CURVE ( 'NONE', #127, #217, #9, .T. ) ;
#17 = CARTESIAN_POINT ( 'NONE',  ( 1.500000000000000222, 1.836970198721030181E-16, 203.0000000000000000 ) ) ;
#18 = DIRECTION ( 'NONE',  ( 1.000000000000000000, 0.000000000000000000, 0.000000000000000000 ) ) ;
#19 = FACE_OUTER_BOUND ( 'NONE', #267, .T. ) ;
#20 = DIRECTION ( 'NONE',  ( 0.000000000000000000, 0.000000000000000000, 1.000000000000000000 ) ) ;
#21 = EDGE_CURVE ( 'NONE', #148, #217, #244, .T. ) ;
#22 = VERTEX_POINT ( 'NONE', #204 ) ;
#23 = APPROVAL_ROLE ( '' ) ;
#24 = PERSON_AND_ORGANIZATION_ROLE ( 'creator' ) ;
#25 = PERSON_AND_ORGANIZATION ( #258, #136 ) ;
#26 = PRODUCT ( '08dc', '08dc', '', ( #268 ) ) ;
#27 = VERTEX_POINT ( 'NONE', #140 ) ;
#28 = APPROVAL_STATUS ( 'not_yet_approved' ) ;
#29 = EDGE_CURVE ( 'NONE', #22, #114, #38, .T. ) ;
#30 = TOROIDAL_SURFACE ( 'NONE', #203, 1.700000000000000400, 0.2000000000000000111 ) ;
#31 = ORIENTED_EDGE ( 'NONE', *, *, #94, .F. ) ;
#32 = EDGE_CURVE ( 'NONE', #110, #27, #11, .T. ) ;
#33 = AXIS2_PLACEMENT_3D ( 'NONE', #281, #69, #167 ) ;
#34 = DIRECTION ( 'NONE',  ( 0.000000000000000000, 0.000000000000000000, -1.000000000000000000 ) ) ;
#35 = APPLICATION_CONTEXT ( 'configuration controlled 3d designs of mechanical parts and assemblies' ) ;
#36 = LOCAL_TIME ( 12, 15, 29.00000000000000000, #180 ) ;
#37 = FACE_OUTER_BOUND ( 'NONE', #263, .T. ) ;
#38 = LINE ( 'NONE', #255, #42 ) ;
#39 = CC_DESIGN_PERSON_AND_ORGANIZATION_ASSIGNMENT ( #152, #6, ( #284 ) ) ;
#40 = CARTESIAN_POINT ( 'NONE',  ( -3.000000000000000444, 0.000000000000000000, 3.000000000000000000 ) ) ;
#41 = DIRECTION ( 'NONE',  ( 0.000000000000000000, 0.000000000000000000, 1.000000000000000000 ) ) ;
#42 = VECTOR ( 'NONE', #137, 1000.000000000000000 ) ;
#43 = DIRECTION ( 'NONE',  ( 0.000000000000000000, 0.000000000000000000, 1.000000000000000000 ) ) ;
#44 = LOCAL_TIME ( 12, 15, 29.00000000000000000, #128 ) ;
#45 = DIRECTION ( 'NONE',  ( 1.000000000000000000, 0.000000000000000000, 0.000000000000000000 ) ) ;
#46 = CARTESIAN_POINT ( 'NONE',  ( 0.000000000000000000, 0.000000000000000000, 3.000000000000000000 ) ) ;
#47 = DIRECTION ( 'NONE',  ( 1.000000000000000000, 0.000000000000000000, 0.000000000000000000 ) ) ;
#48 = ORIENTED_EDGE ( 'NONE', *, *, #147, .F. ) ;
#49 = PERSON_AND_ORGANIZATION_ROLE ( 'design_owner' ) ;
#50 = ORIENTED_EDGE ( 'NONE', *, *, #272, .F. ) ;
#51 = VERTEX_POINT ( 'NONE', #116 ) ;
#52 = PRODUCT_DEFINITION ( 'NEZNÁMÝ', '', #284, #302 ) ;
#53 = SHAPE_DEFINITION_REPRESENTATION ( #129, #239 ) ;
#54 = ORIENTED_EDGE ( 'NONE', *, *, #16, .T. ) ;
#55 = VECTOR ( 'NONE', #300, 1000.000000000000000 ) ;
#56 = DIRECTION ( 'NONE',  ( 1.000000000000000000, 0.000000000000000000, 0.000000000000000000 ) ) ;
#57 = APPROVAL_DATE_TIME ( #4, #292 ) ;
#58 = EDGE_CURVE ( 'NONE', #217, #127, #149, .T. ) ;
#59 = ORIENTED_EDGE ( 'NONE', *, *, #142, .F. ) ;
#60 = AXIS2_PLACEMENT_3D ( 'NONE', #278, #274, #213 ) ;
#61 = CARTESIAN_POINT ( 'NONE',  ( 0.000000000000000000, 0.000000000000000000, 0.000000000000000000 ) ) ;
#62 = APPROVAL ( #78, 'NEURÈENÝ' ) ;
#63 = DIRECTION ( 'NONE',  ( 0.000000000000000000, 0.000000000000000000, 1.000000000000000000 ) ) ;
#64 = DIRECTION ( 'NONE',  ( -0.000000000000000000, -0.000000000000000000, -1.000000000000000000 ) ) ;
#65 = CARTESIAN_POINT ( 'NONE',  ( 1.500000000000000222, 1.836970198721030181E-16, 203.0000000000000000 ) ) ;
#66 = CYLINDRICAL_SURFACE ( 'NONE', #248, 1.500000000000000222 ) ;
#67 = CARTESIAN_POINT ( 'NONE',  ( 0.000000000000000000, 0.000000000000000000, 0.000000000000000000 ) ) ;
#68 = CARTESIAN_POINT ( 'NONE',  ( 0.000000000000000000, 0.000000000000000000, 203.0000000000000000 ) ) ;
#69 = DIRECTION ( 'NONE',  ( 0.000000000000000000, 0.000000000000000000, 1.000000000000000000 ) ) ;
#70 = CIRCLE ( 'NONE', #290, 1.500000000000000222 ) ;
#71 = DIRECTION ( 'NONE',  ( 1.000000000000000000, 0.000000000000000000, -0.000000000000000000 ) ) ;
#72 = ORIENTED_EDGE ( 'NONE', *, *, #272, .T. ) ;
#73 = DIRECTION ( 'NONE',  ( -0.000000000000000000, -0.000000000000000000, -1.000000000000000000 ) ) ;
#74 = VERTEX_POINT ( 'NONE', #95 ) ;
#75 = ORIENTED_EDGE ( 'NONE', *, *, #32, .F. ) ;
#76 = CALENDAR_DATE ( 2022, 20, 6 ) ;
#77 = AXIS2_PLACEMENT_3D ( 'NONE', #251, #41, #210 ) ;
#78 = APPROVAL_STATUS ( 'not_yet_approved' ) ;
#79 = ORIENTED_EDGE ( 'NONE', *, *, #81, .F. ) ;
#80 = DATE_AND_TIME ( #154, #44 ) ;
#81 = EDGE_CURVE ( 'NONE', #74, #114, #158, .T. ) ;
#82 = APPLICATION_PROTOCOL_DEFINITION ( 'international standard', 'config_control_design', 1994, #226 ) ;
#83 = TOROIDAL_SURFACE ( 'NONE', #113, 1.700000000000000400, 0.2000000000000000111 ) ;
#84 = ORIENTED_EDGE ( 'NONE', *, *, #243, .T. ) ;
#85 = ADVANCED_FACE ( 'NONE', ( #165 ), #189, .F. ) ;
#86 = LOCAL_TIME ( 12, 15, 29.00000000000000000, #177 ) ;
#87 = CARTESIAN_POINT ( 'NONE',  ( 0.000000000000000000, 0.000000000000000000, 3.000000000000000000 ) ) ;
#88 = APPROVAL ( #194, 'NEURÈENÝ' ) ;
#89 = DIRECTION ( 'NONE',  ( 0.000000000000000000, 0.000000000000000000, 1.000000000000000000 ) ) ;
#90 = DIRECTION ( 'NONE',  ( 0.000000000000000000, 0.000000000000000000, 1.000000000000000000 ) ) ;
#91 = CIRCLE ( 'NONE', #60, 3.000000000000000444 ) ;
#92 = DIRECTION ( 'NONE',  ( 0.000000000000000000, 0.000000000000000000, 1.000000000000000000 ) ) ;
#93 = CARTESIAN_POINT ( 'NONE',  ( 3.000000000000000444, 3.673940397442060361E-16, 3.000000000000000000 ) ) ;
#94 = EDGE_CURVE ( 'NONE', #256, #22, #253, .T. ) ;
#95 = CARTESIAN_POINT ( 'NONE',  ( 1.500000000000000222, 1.836970198721030181E-16, 3.200000000000008171 ) ) ;
#96 = CARTESIAN_POINT ( 'NONE',  ( 0.000000000000000000, 0.000000000000000000, 3.000000000000000000 ) ) ;
#97 = CARTESIAN_POINT ( 'NONE',  ( 3.000000000000000444, 3.673940397442060361E-16, 0.000000000000000000 ) ) ;
#98 = CYLINDRICAL_SURFACE ( 'NONE', #299, 1.500000000000000222 ) ;
#99 = ORIENTED_EDGE ( 'NONE', *, *, #142, .T. ) ;
#100 = APPROVAL_DATE_TIME ( #80, #88 ) ;
#101 = ORIENTED_EDGE ( 'NONE', *, *, #303, .F. ) ;
#102 = ADVANCED_FACE ( 'NONE', ( #232, #19 ), #183, .T. ) ;
#103 = ORIENTED_EDGE ( 'NONE', *, *, #94, .T. ) ;
#104 = PERSON_AND_ORGANIZATION ( #258, #136 ) ;
#105 = CIRCLE ( 'NONE', #141, 0.2000000000000000944 ) ;
#106 = SECURITY_CLASSIFICATION ( '', '', #126 ) ;
#107 = ORIENTED_EDGE ( 'NONE', *, *, #231, .T. ) ;
#108 = APPLICATION_PROTOCOL_DEFINITION ( 'international standard', 'config_control_design', 1994, #35 ) ;
#109 = DIRECTION ( 'NONE',  ( 1.000000000000000000, 0.000000000000000000, 0.000000000000000000 ) ) ;
#110 = VERTEX_POINT ( 'NONE', #305 ) ;
#111 = PRODUCT_RELATED_PRODUCT_CATEGORY ( 'detail', '', ( #26 ) ) ;
#112 = ORIENTED_EDGE ( 'NONE', *, *, #81, .T. ) ;
#113 = AXIS2_PLACEMENT_3D ( 'NONE', #191, #89, #192 ) ;
#114 = VERTEX_POINT ( 'NONE', #212 ) ;
#115 = DIRECTION ( 'NONE',  ( -0.000000000000000000, -0.000000000000000000, -1.000000000000000000 ) ) ;
#116 = CARTESIAN_POINT ( 'NONE',  ( 3.000000000000000444, 3.673940397442060361E-16, 3.000000000000000000 ) ) ;
#117 = DIRECTION ( 'NONE',  ( 1.000000000000000000, 0.000000000000000000, 0.000000000000000000 ) ) ;
#118 = CIRCLE ( 'NONE', #270, 1.500000000000000222 ) ;
#119 = CARTESIAN_POINT ( 'NONE',  ( 0.000000000000000000, 0.000000000000000000, 203.0000000000000000 ) ) ;
#120 = CARTESIAN_POINT ( 'NONE',  ( 0.000000000000000000, 0.000000000000000000, 3.200000000000008171 ) ) ;
#121 = DIRECTION ( 'NONE',  ( -0.000000000000000000, -0.000000000000000000, -1.000000000000000000 ) ) ;
#122 = ADVANCED_FACE ( 'NONE', ( #285 ), #83, .F. ) ;
#123 = LINE ( 'NONE', #65, #208 ) ;
#124 = AXIS2_PLACEMENT_3D ( 'NONE', #96, #73, #233 ) ;
#125 = APPROVAL_PERSON_ORGANIZATION ( #261, #62, #240 ) ;
#126 = SECURITY_CLASSIFICATION_LEVEL ( 'unclassified' ) ;
#127 = VERTEX_POINT ( 'NONE', #97 ) ;
#128 = COORDINATED_UNIVERSAL_TIME_OFFSET ( 1, 0, .AHEAD. ) ;
#129 = PRODUCT_DEFINITION_SHAPE ( 'NONE', 'NONE',  #52 ) ;
#130 = ORIENTED_EDGE ( 'NONE', *, *, #147, .T. ) ;
#131 = ADVANCED_FACE ( 'NONE', ( #227 ), #301, .T. ) ;
#132 = ORIENTED_EDGE ( 'NONE', *, *, #231, .F. ) ;
#133 = AXIS2_PLACEMENT_3D ( 'NONE', #46, #230, #144 ) ;
#134 = AXIS2_PLACEMENT_3D ( 'NONE', #138, #121, #117 ) ;
#135 = DIRECTION ( 'NONE',  ( 0.000000000000000000, 0.000000000000000000, 1.000000000000000000 ) ) ;
#136 = ORGANIZATION ( 'NEURÈENÝ', 'NEURÈENÝ', '' ) ;
#137 = DIRECTION ( 'NONE',  ( -0.000000000000000000, -0.000000000000000000, -1.000000000000000000 ) ) ;
#138 = CARTESIAN_POINT ( 'NONE',  ( 0.000000000000000000, 0.000000000000000000, 3.000000000000000000 ) ) ;
#139 = PLANE ( 'NONE',  #297 ) ;
#140 = CARTESIAN_POINT ( 'NONE',  ( -1.700000000000000400, 2.081899558550500773E-16, 3.000000000000004441 ) ) ;
#141 = AXIS2_PLACEMENT_3D ( 'NONE', #190, #283, #169 ) ;
#142 = EDGE_CURVE ( 'NONE', #51, #148, #91, .T. ) ;
#143 = CARTESIAN_POINT ( 'NONE',  ( 0.000000000000000000, 0.000000000000000000, 203.0000000000000000 ) ) ;
#144 = DIRECTION ( 'NONE',  ( -1.000000000000000000, 0.000000000000000000, 0.000000000000000000 ) ) ;
#145 = EDGE_LOOP ( 'NONE', ( #132, #223, #197, #72 ) ) ;
#146 = CARTESIAN_POINT ( 'NONE',  ( 0.000000000000000000, 0.000000000000000000, 3.000000000000000000 ) ) ;
#147 = EDGE_CURVE ( 'NONE', #51, #127, #14, .T. ) ;
#148 = VERTEX_POINT ( 'NONE', #40 ) ;
#149 = CIRCLE ( 'NONE', #186, 3.000000000000000444 ) ;
#150 = DATE_AND_TIME ( #76, #296 ) ;
#151 = ORIENTED_EDGE ( 'NONE', *, *, #172, .F. ) ;
#152 = PERSON_AND_ORGANIZATION ( #258, #136 ) ;
#153 = CC_DESIGN_DATE_AND_TIME_ASSIGNMENT ( #199, #289, ( #106 ) ) ;
#154 = CALENDAR_DATE ( 2022, 20, 6 ) ;
#155 = CARTESIAN_POINT ( 'NONE',  ( 1.700000000000000400, 0.000000000000000000, 3.200000000000008171 ) ) ;
#156 = APPROVAL_ROLE ( '' ) ;
#157 = ADVANCED_FACE ( 'NONE', ( #211 ), #66, .T. ) ;
#158 = CIRCLE ( 'NONE', #259, 1.500000000000000222 ) ;
#159 = CC_DESIGN_PERSON_AND_ORGANIZATION_ASSIGNMENT ( #104, #291, ( #106 ) ) ;
#160 = DIRECTION ( 'NONE',  ( 1.000000000000000000, 0.000000000000000000, -0.000000000000000000 ) ) ;
#161 =( GEOMETRIC_REPRESENTATION_CONTEXT ( 3 ) GLOBAL_UNCERTAINTY_ASSIGNED_CONTEXT ( ( #229 ) ) GLOBAL_UNIT_ASSIGNED_CONTEXT ( ( #234, #288, #265 ) ) REPRESENTATION_CONTEXT ( 'NONE', 'WORKASPACE' ) );
#162 = CC_DESIGN_SECURITY_CLASSIFICATION ( #106, ( #284 ) ) ;
#163 = DIRECTION ( 'NONE',  ( 1.000000000000000000, 0.000000000000000000, 0.000000000000000000 ) ) ;
#164 = DIRECTION ( 'NONE',  ( 1.000000000000000000, 0.000000000000000000, 0.000000000000000000 ) ) ;
#165 = FACE_OUTER_BOUND ( 'NONE', #184, .T. ) ;
#166 = CC_DESIGN_PERSON_AND_ORGANIZATION_ASSIGNMENT ( #237, #24, ( #284 ) ) ;
#167 = DIRECTION ( 'NONE',  ( 1.000000000000000000, 0.000000000000000000, 0.000000000000000000 ) ) ;
#168 = AXIS2_PLACEMENT_3D ( 'NONE', #146, #92, #164 ) ;
#169 = DIRECTION ( 'NONE',  ( -1.000000000000000000, 1.224646799147353207E-16, 0.000000000000000000 ) ) ;
#170 = EDGE_LOOP ( 'NONE', ( #59, #130, #54, #273 ) ) ;
#171 = CARTESIAN_POINT ( 'NONE',  ( 0.000000000000000000, 0.000000000000000000, 3.200000000000008171 ) ) ;
#172 = EDGE_CURVE ( 'NONE', #27, #110, #202, .T. ) ;
#173 = COORDINATED_UNIVERSAL_TIME_OFFSET ( 1, 0, .AHEAD. ) ;
#174 = CIRCLE ( 'NONE', #168, 3.000000000000000444 ) ;
#175 = CARTESIAN_POINT ( 'NONE',  ( 0.000000000000000000, 0.000000000000000000, 0.000000000000000000 ) ) ;
#176 = ORIENTED_EDGE ( 'NONE', *, *, #58, .T. ) ;
#177 = COORDINATED_UNIVERSAL_TIME_OFFSET ( 1, 0, .AHEAD. ) ;
#178 = ORIENTED_EDGE ( 'NONE', *, *, #21, .T. ) ;
#179 = DIRECTION ( 'NONE',  ( 0.000000000000000000, -1.000000000000000000, 0.000000000000000000 ) ) ;
#180 = COORDINATED_UNIVERSAL_TIME_OFFSET ( 1, 0, .AHEAD. ) ;
#181 = ORIENTED_EDGE ( 'NONE', *, *, #16, .F. ) ;
#182 = CLOSED_SHELL ( 'NONE', ( #269, #157, #282, #131, #102, #85, #201, #206, #122 ) ) ;
#183 = PLANE ( 'NONE',  #15 ) ;
#184 = EDGE_LOOP ( 'NONE', ( #293, #181 ) ) ;
#185 = DIRECTION ( 'NONE',  ( -1.000000000000000000, 0.000000000000000000, 0.000000000000000000 ) ) ;
#186 = AXIS2_PLACEMENT_3D ( 'NONE', #67, #298, #45 ) ;
#187 = DIRECTION ( 'NONE',  ( -0.000000000000000000, -0.000000000000000000, -1.000000000000000000 ) ) ;
#188 = FACE_OUTER_BOUND ( 'NONE', #145, .T. ) ;
#189 = PLANE ( 'NONE',  #77 ) ;
#190 = CARTESIAN_POINT ( 'NONE',  ( -1.700000000000000400, 2.081899558550500773E-16, 3.200000000000008171 ) ) ;
#191 = CARTESIAN_POINT ( 'NONE',  ( 0.000000000000000000, 0.000000000000000000, 3.200000000000008171 ) ) ;
#192 = DIRECTION ( 'NONE',  ( 1.000000000000000000, 0.000000000000000000, 0.000000000000000000 ) ) ;
#193 = ORIENTED_EDGE ( 'NONE', *, *, #10, .T. ) ;
#194 = APPROVAL_STATUS ( 'not_yet_approved' ) ;
#195 = EDGE_LOOP ( 'NONE', ( #31, #107, #112, #238 ) ) ;
#196 = CALENDAR_DATE ( 2022, 20, 6 ) ;
#197 = ORIENTED_EDGE ( 'NONE', *, *, #29, .T. ) ;
#198 = DIRECTION ( 'NONE',  ( 0.000000000000000000, 0.000000000000000000, 1.000000000000000000 ) ) ;
#199 = DATE_AND_TIME ( #196, #276 ) ;
#200 = PERSON_AND_ORGANIZATION ( #258, #136 ) ;
#201 = ADVANCED_FACE ( 'NONE', ( #188 ), #98, .T. ) ;
#202 = CIRCLE ( 'NONE', #134, 1.700000000000000400 ) ;
#203 = AXIS2_PLACEMENT_3D ( 'NONE', #252, #286, #47 ) ;
#204 = CARTESIAN_POINT ( 'NONE',  ( -1.500000000000000222, 0.000000000000000000, 203.0000000000000000 ) ) ;
#205 = CARTESIAN_POINT ( 'NONE',  ( -3.000000000000000444, 0.000000000000000000, 3.000000000000000000 ) ) ;
#206 = ADVANCED_FACE ( 'NONE', ( #207 ), #139, .T. ) ;
#207 = FACE_OUTER_BOUND ( 'NONE', #236, .T. ) ;
#208 = VECTOR ( 'NONE', #187, 1000.000000000000000 ) ;
#209 = DIRECTION ( 'NONE',  ( -0.000000000000000000, -0.000000000000000000, -1.000000000000000000 ) ) ;
#210 = DIRECTION ( 'NONE',  ( 1.000000000000000000, 0.000000000000000000, -0.000000000000000000 ) ) ;
#211 = FACE_OUTER_BOUND ( 'NONE', #195, .T. ) ;
#212 = CARTESIAN_POINT ( 'NONE',  ( -1.500000000000000222, 0.000000000000000000, 3.200000000000008171 ) ) ;
#213 = DIRECTION ( 'NONE',  ( 1.000000000000000000, 0.000000000000000000, 0.000000000000000000 ) ) ;
#214 = CC_DESIGN_APPROVAL ( #292, ( #52 ) ) ;
#215 = EDGE_LOOP ( 'NONE', ( #101, #79, #193, #151 ) ) ;
#216 = PERSON_AND_ORGANIZATION ( #258, #136 ) ;
#217 = VERTEX_POINT ( 'NONE', #280 ) ;
#218 = MANIFOLD_SOLID_BREP ( 'Zaoblit1', #182 ) ;
#219 = EDGE_CURVE ( 'NONE', #148, #51, #174, .T. ) ;
#220 = AXIS2_PLACEMENT_3D ( 'NONE', #87, #64, #13 ) ;
#221 = CC_DESIGN_APPROVAL ( #88, ( #284 ) ) ;
#222 = PERSON_AND_ORGANIZATION_ROLE ( 'creator' ) ;
#223 = ORIENTED_EDGE ( 'NONE', *, *, #243, .F. ) ;
#224 = PERSON_AND_ORGANIZATION ( #258, #136 ) ;
#225 = CC_DESIGN_DATE_AND_TIME_ASSIGNMENT ( #150, #295, ( #52 ) ) ;
#226 = APPLICATION_CONTEXT ( 'configuration controlled 3d designs of mechanical parts and assemblies' ) ;
#227 = FACE_OUTER_BOUND ( 'NONE', #1, .T. ) ;
#228 = CARTESIAN_POINT ( 'NONE',  ( 0.000000000000000000, 0.000000000000000000, 203.0000000000000000 ) ) ;
#229 = UNCERTAINTY_MEASURE_WITH_UNIT (LENGTH_MEASURE( 1.000000000000000082E-05 ), #234, 'distance_accuracy_value', 'NONE');
#230 = DIRECTION ( 'NONE',  ( -0.000000000000000000, -0.000000000000000000, -1.000000000000000000 ) ) ;
#231 = EDGE_CURVE ( 'NONE', #256, #74, #123, .T. ) ;
#232 = FACE_BOUND ( 'NONE', #287, .T. ) ;
#233 = DIRECTION ( 'NONE',  ( -1.000000000000000000, 0.000000000000000000, 0.000000000000000000 ) ) ;
#234 =( LENGTH_UNIT ( ) NAMED_UNIT ( * ) SI_UNIT ( .MILLI., .METRE. ) );
#235 = AXIS2_PLACEMENT_3D ( 'NONE', #61, #135, #56 ) ;
#236 = EDGE_LOOP ( 'NONE', ( #84, #103 ) ) ;
#237 = PERSON_AND_ORGANIZATION ( #258, #136 ) ;
#238 = ORIENTED_EDGE ( 'NONE', *, *, #29, .F. ) ;
#239 = ADVANCED_BREP_SHAPE_REPRESENTATION ( '08dc', ( #218, #266 ), #161 ) ;
#240 = APPROVAL_ROLE ( '' ) ;
#241 = ORIENTED_EDGE ( 'NONE', *, *, #172, .T. ) ;
#242 = CIRCLE ( 'NONE', #275, 0.2000000000000000944 ) ;
#243 = EDGE_CURVE ( 'NONE', #22, #256, #118, .T. ) ;
#244 = LINE ( 'NONE', #205, #245 ) ;
#245 = VECTOR ( 'NONE', #279, 1000.000000000000000 ) ;
#246 = ORIENTED_EDGE ( 'NONE', *, *, #219, .T. ) ;
#247 = CC_DESIGN_PERSON_AND_ORGANIZATION_ASSIGNMENT ( #25, #222, ( #52 ) ) ;
#248 = AXIS2_PLACEMENT_3D ( 'NONE', #119, #209, #306 ) ;
#249 = CYLINDRICAL_SURFACE ( 'NONE', #124, 3.000000000000000444 ) ;
#250 = DIRECTION ( 'NONE',  ( 0.000000000000000000, 0.000000000000000000, 1.000000000000000000 ) ) ;
#251 = CARTESIAN_POINT ( 'NONE',  ( 0.000000000000000000, 0.000000000000000000, 0.000000000000000000 ) ) ;
#252 = CARTESIAN_POINT ( 'NONE',  ( 0.000000000000000000, 0.000000000000000000, 3.200000000000008171 ) ) ;
#253 = CIRCLE ( 'NONE', #33, 1.500000000000000222 ) ;
#254 = CC_DESIGN_APPROVAL ( #62, ( #106 ) ) ;
#255 = CARTESIAN_POINT ( 'NONE',  ( -1.500000000000000222, 0.000000000000000000, 203.0000000000000000 ) ) ;
#256 = VERTEX_POINT ( 'NONE', #17 ) ;
#257 = ORIENTED_EDGE ( 'NONE', *, *, #10, .F. ) ;
#258 = PERSON ( 'NEURÈENÝ', 'NEURÈENÝ', 'NEURÈENÝ', ('NEURÈENÝ'), ('NEURÈENÝ'), ('NEURÈENÝ') ) ;
#259 = AXIS2_PLACEMENT_3D ( 'NONE', #120, #90, #277 ) ;
#260 = ORIENTED_EDGE ( 'NONE', *, *, #303, .T. ) ;
#261 = PERSON_AND_ORGANIZATION ( #258, #136 ) ;
#262 = CALENDAR_DATE ( 2022, 20, 6 ) ;
#263 = EDGE_LOOP ( 'NONE', ( #50, #260, #75, #257 ) ) ;
#264 = CC_DESIGN_PERSON_AND_ORGANIZATION_ASSIGNMENT ( #216, #49, ( #26 ) ) ;
#265 =( NAMED_UNIT ( * ) SI_UNIT ( $, .STERADIAN. ) SOLID_ANGLE_UNIT ( ) );
#266 = AXIS2_PLACEMENT_3D ( 'NONE', #175, #198, #109 ) ;
#267 = EDGE_LOOP ( 'NONE', ( #246, #99 ) ) ;
#268 = MECHANICAL_CONTEXT ( 'NONE', #226, 'mechanical' ) ;
#269 = ADVANCED_FACE ( 'NONE', ( #37 ), #30, .F. ) ;
#270 = AXIS2_PLACEMENT_3D ( 'NONE', #68, #250, #163 ) ;
#271 = CARTESIAN_POINT ( 'NONE',  ( 0.000000000000000000, 0.000000000000000000, 3.000000000000000000 ) ) ;
#272 = EDGE_CURVE ( 'NONE', #114, #74, #70, .T. ) ;
#273 = ORIENTED_EDGE ( 'NONE', *, *, #21, .F. ) ;
#274 = DIRECTION ( 'NONE',  ( 0.000000000000000000, 0.000000000000000000, 1.000000000000000000 ) ) ;
#275 = AXIS2_PLACEMENT_3D ( 'NONE', #155, #179, #34 ) ;
#276 = LOCAL_TIME ( 12, 15, 29.00000000000000000, #3 ) ;
#277 = DIRECTION ( 'NONE',  ( 1.000000000000000000, 0.000000000000000000, 0.000000000000000000 ) ) ;
#278 = CARTESIAN_POINT ( 'NONE',  ( 0.000000000000000000, 0.000000000000000000, 3.000000000000000000 ) ) ;
#279 = DIRECTION ( 'NONE',  ( -0.000000000000000000, -0.000000000000000000, -1.000000000000000000 ) ) ;
#280 = CARTESIAN_POINT ( 'NONE',  ( -3.000000000000000444, 0.000000000000000000, 0.000000000000000000 ) ) ;
#281 = CARTESIAN_POINT ( 'NONE',  ( 0.000000000000000000, 0.000000000000000000, 203.0000000000000000 ) ) ;
#282 = ADVANCED_FACE ( 'NONE', ( #304 ), #249, .T. ) ;
#283 = DIRECTION ( 'NONE',  ( 1.224646799147353207E-16, 1.000000000000000000, -0.000000000000000000 ) ) ;
#284 = PRODUCT_DEFINITION_FORMATION_WITH_SPECIFIED_SOURCE ( 'LIBOVOLNÝ', '', #26, .NOT_KNOWN. ) ;
#285 = FACE_OUTER_BOUND ( 'NONE', #215, .T. ) ;
#286 = DIRECTION ( 'NONE',  ( 0.000000000000000000, 0.000000000000000000, 1.000000000000000000 ) ) ;
#287 = EDGE_LOOP ( 'NONE', ( #5, #241 ) ) ;
#288 =( NAMED_UNIT ( * ) PLANE_ANGLE_UNIT ( ) SI_UNIT ( $, .RADIAN. ) );
#289 = DATE_TIME_ROLE ( 'classification_date' ) ;
#290 = AXIS2_PLACEMENT_3D ( 'NONE', #171, #43, #18 ) ;
#291 = PERSON_AND_ORGANIZATION_ROLE ( 'classification_officer' ) ;
#292 = APPROVAL ( #28, 'NEURÈENÝ' ) ;
#293 = ORIENTED_EDGE ( 'NONE', *, *, #58, .F. ) ;
#294 = DATE_AND_TIME ( #262, #86 ) ;
#295 = DATE_TIME_ROLE ( 'creation_date' ) ;
#296 = LOCAL_TIME ( 12, 15, 29.00000000000000000, #173 ) ;
#297 = AXIS2_PLACEMENT_3D ( 'NONE', #228, #20, #71 ) ;
#298 = DIRECTION ( 'NONE',  ( 0.000000000000000000, 0.000000000000000000, 1.000000000000000000 ) ) ;
#299 = AXIS2_PLACEMENT_3D ( 'NONE', #143, #115, #185 ) ;
#300 = DIRECTION ( 'NONE',  ( -0.000000000000000000, -0.000000000000000000, -1.000000000000000000 ) ) ;
#301 = CYLINDRICAL_SURFACE ( 'NONE', #133, 3.000000000000000444 ) ;
#302 = DESIGN_CONTEXT ( 'detailed design', #35, 'design' ) ;
#303 = EDGE_CURVE ( 'NONE', #114, #27, #105, .T. ) ;
#304 = FACE_OUTER_BOUND ( 'NONE', #170, .T. ) ;
#305 = CARTESIAN_POINT ( 'NONE',  ( 1.700000000000000400, 0.000000000000000000, 3.000000000000004441 ) ) ;
#306 = DIRECTION ( 'NONE',  ( -1.000000000000000000, 0.000000000000000000, 0.000000000000000000 ) ) ;
#307 = APPROVAL_PERSON_ORGANIZATION ( #200, #292, #23 ) ;
ENDSEC;
END-ISO-10303-21;
