ISO-10303-21;
HEADER;
FILE_DESCRIPTION (( 'STEP AP203' ),
    '1' );
FILE_NAME ('6d83.STEP',
    '2022-06-20T10:07:11',
    ( '' ),
    ( '' ),
    'SwSTEP 2.0',
    'SolidWorks 2019',
    '' );
FILE_SCHEMA (( 'CONFIG_CONTROL_DESIGN' ));
ENDSEC;

DATA;
#1 = VERTEX_POINT ( 'NONE', #79 ) ;
#2 = AXIS2_PLACEMENT_3D ( 'NONE', #149, #164, #116 ) ;
#3 = APPROVAL_DATE_TIME ( #180, #296 ) ;
#4 = APPROVAL_STATUS ( 'not_yet_approved' ) ;
#5 = PRODUCT ( '6d83', '6d83', '', ( #22 ) ) ;
#6 = PERSON_AND_ORGANIZATION_ROLE ( 'design_supplier' ) ;
#7 = AXIS2_PLACEMENT_3D ( 'NONE', #263, #44, #210 ) ;
#8 = ORIENTED_EDGE ( 'NONE', *, *, #130, .T. ) ;
#9 = EDGE_CURVE ( 'NONE', #286, #96, #13, .T. ) ;
#10 = AXIS2_PLACEMENT_3D ( 'NONE', #193, #284, #167 ) ;
#11 = CIRCLE ( 'NONE', #97, 4.000000000000000000 ) ;
#12 = AXIS2_PLACEMENT_3D ( 'NONE', #168, #23, #14 ) ;
#13 = CIRCLE ( 'NONE', #294, 2.100000000000000089 ) ;
#14 = DIRECTION ( 'NONE',  ( -1.000000000000000000, 0.000000000000000000, 0.000000000000000000 ) ) ;
#15 = ORIENTED_EDGE ( 'NONE', *, *, #265, .F. ) ;
#16 = DIRECTION ( 'NONE',  ( 1.224646799147353207E-16, 1.000000000000000000, -0.000000000000000000 ) ) ;
#17 = EDGE_LOOP ( 'NONE', ( #203, #42 ) ) ;
#18 = APPLICATION_PROTOCOL_DEFINITION ( 'international standard', 'config_control_design', 1994, #176 ) ;
#19 = ADVANCED_FACE ( 'NONE', ( #249 ), #53, .T. ) ;
#20 = APPROVAL_PERSON_ORGANIZATION ( #128, #126, #244 ) ;
#21 = VERTEX_POINT ( 'NONE', #181 ) ;
#22 = MECHANICAL_CONTEXT ( 'NONE', #176, 'mechanical' ) ;
#23 = DIRECTION ( 'NONE',  ( -0.000000000000000000, -0.000000000000000000, -1.000000000000000000 ) ) ;
#24 = ORIENTED_EDGE ( 'NONE', *, *, #186, .T. ) ;
#25 = COORDINATED_UNIVERSAL_TIME_OFFSET ( 1, 0, .AHEAD. ) ;
#26 = LOCAL_TIME ( 12, 7, 11.00000000000000000, #50 ) ;
#27 = AXIS2_PLACEMENT_3D ( 'NONE', #58, #183, #272 ) ;
#28 = DATE_TIME_ROLE ( 'classification_date' ) ;
#29 = FACE_OUTER_BOUND ( 'NONE', #93, .T. ) ;
#30 = CC_DESIGN_DATE_AND_TIME_ASSIGNMENT ( #252, #80, ( #55 ) ) ;
#31 = CC_DESIGN_SECURITY_CLASSIFICATION ( #297, ( #76 ) ) ;
#32 = CC_DESIGN_APPROVAL ( #103, ( #55 ) ) ;
#33 = DIRECTION ( 'NONE',  ( 0.000000000000000000, 0.000000000000000000, 1.000000000000000000 ) ) ;
#34 = CC_DESIGN_PERSON_AND_ORGANIZATION_ASSIGNMENT ( #48, #250, ( #55 ) ) ;
#35 = ORIENTED_EDGE ( 'NONE', *, *, #159, .T. ) ;
#36 = DIRECTION ( 'NONE',  ( 0.000000000000000000, 0.000000000000000000, 1.000000000000000000 ) ) ;
#37 = TOROIDAL_SURFACE ( 'NONE', #259, 2.300000000000000266, 0.2000000000000000111 ) ;
#38 = DIRECTION ( 'NONE',  ( 0.000000000000000000, 0.000000000000000000, 1.000000000000000000 ) ) ;
#39 = ADVANCED_FACE ( 'NONE', ( #29 ), #281, .F. ) ;
#40 = DIRECTION ( 'NONE',  ( -0.000000000000000000, -0.000000000000000000, -1.000000000000000000 ) ) ;
#41 = DIRECTION ( 'NONE',  ( 0.000000000000000000, 0.000000000000000000, 1.000000000000000000 ) ) ;
#42 = ORIENTED_EDGE ( 'NONE', *, *, #274, .T. ) ;
#43 = DIRECTION ( 'NONE',  ( 1.000000000000000000, 0.000000000000000000, 0.000000000000000000 ) ) ;
#44 = DIRECTION ( 'NONE',  ( 0.000000000000000000, -1.000000000000000000, 0.000000000000000000 ) ) ;
#45 = ORIENTED_EDGE ( 'NONE', *, *, #274, .F. ) ;
#46 = PERSON_AND_ORGANIZATION ( #307, #192 ) ;
#47 = EDGE_CURVE ( 'NONE', #200, #89, #124, .T. ) ;
#48 = PERSON_AND_ORGANIZATION ( #307, #192 ) ;
#49 = EDGE_LOOP ( 'NONE', ( #171, #162, #191, #145 ) ) ;
#50 = COORDINATED_UNIVERSAL_TIME_OFFSET ( 1, 0, .AHEAD. ) ;
#51 = DIRECTION ( 'NONE',  ( 0.000000000000000000, 0.000000000000000000, 1.000000000000000000 ) ) ;
#52 = VECTOR ( 'NONE', #141, 1000.000000000000000 ) ;
#53 = CYLINDRICAL_SURFACE ( 'NONE', #131, 4.000000000000000000 ) ;
#54 = DATE_AND_TIME ( #204, #26 ) ;
#55 = PRODUCT_DEFINITION ( 'NEZNÁMÝ', '', #76, #165 ) ;
#56 = VERTEX_POINT ( 'NONE', #289 ) ;
#57 = APPROVAL_ROLE ( '' ) ;
#58 = CARTESIAN_POINT ( 'NONE',  ( 0.000000000000000000, 0.000000000000000000, 3.000000000000000000 ) ) ;
#59 = CALENDAR_DATE ( 2022, 20, 6 ) ;
#60 = AXIS2_PLACEMENT_3D ( 'NONE', #220, #199, #125 ) ;
#61 = FACE_OUTER_BOUND ( 'NONE', #73, .T. ) ;
#62 = CARTESIAN_POINT ( 'NONE',  ( 0.000000000000000000, 0.000000000000000000, 3.199999999999980638 ) ) ;
#63 = CC_DESIGN_PERSON_AND_ORGANIZATION_ASSIGNMENT ( #270, #290, ( #76 ) ) ;
#64 = AXIS2_PLACEMENT_3D ( 'NONE', #105, #51, #266 ) ;
#65 = CARTESIAN_POINT ( 'NONE',  ( 0.000000000000000000, 0.000000000000000000, 0.000000000000000000 ) ) ;
#66 = CARTESIAN_POINT ( 'NONE',  ( 0.000000000000000000, 0.000000000000000000, 403.0000000000000000 ) ) ;
#67 = ORIENTED_EDGE ( 'NONE', *, *, #182, .T. ) ;
#68 = CARTESIAN_POINT ( 'NONE',  ( -2.300000000000000266, 2.816687638038912549E-16, 3.199999999999980638 ) ) ;
#69 = EDGE_CURVE ( 'NONE', #96, #21, #267, .T. ) ;
#70 = EDGE_LOOP ( 'NONE', ( #269, #219 ) ) ;
#71 = FACE_BOUND ( 'NONE', #17, .T. ) ;
#72 = CYLINDRICAL_SURFACE ( 'NONE', #12, 2.100000000000000089 ) ;
#73 = EDGE_LOOP ( 'NONE', ( #283, #106, #221, #303 ) ) ;
#74 =( NAMED_UNIT ( * ) SI_UNIT ( $, .STERADIAN. ) SOLID_ANGLE_UNIT ( ) );
#75 = LINE ( 'NONE', #212, #52 ) ;
#76 = PRODUCT_DEFINITION_FORMATION_WITH_SPECIFIED_SOURCE ( 'LIBOVOLNÝ', '', #5, .NOT_KNOWN. ) ;
#77 = EDGE_LOOP ( 'NONE', ( #111, #261, #35, #291 ) ) ;
#78 = DATE_AND_TIME ( #201, #237 ) ;
#79 = CARTESIAN_POINT ( 'NONE',  ( 4.000000000000000000, 4.898587196589412829E-16, 3.000000000000000000 ) ) ;
#80 = DATE_TIME_ROLE ( 'creation_date' ) ;
#81 = DIRECTION ( 'NONE',  ( -0.000000000000000000, -0.000000000000000000, -1.000000000000000000 ) ) ;
#82 = VECTOR ( 'NONE', #172, 1000.000000000000000 ) ;
#83 = DIRECTION ( 'NONE',  ( 0.000000000000000000, 0.000000000000000000, 1.000000000000000000 ) ) ;
#84 = SECURITY_CLASSIFICATION_LEVEL ( 'unclassified' ) ;
#85 = LOCAL_TIME ( 12, 7, 11.00000000000000000, #247 ) ;
#86 = DIRECTION ( 'NONE',  ( 0.000000000000000000, 0.000000000000000000, 1.000000000000000000 ) ) ;
#87 = CIRCLE ( 'NONE', #194, 4.000000000000000000 ) ;
#88 = CARTESIAN_POINT ( 'NONE',  ( 0.000000000000000000, 0.000000000000000000, 3.000000000000000000 ) ) ;
#89 = VERTEX_POINT ( 'NONE', #246 ) ;
#90 = CYLINDRICAL_SURFACE ( 'NONE', #10, 4.000000000000000000 ) ;
#91 = APPLICATION_CONTEXT ( 'configuration controlled 3d designs of mechanical parts and assemblies' ) ;
#92 = DIRECTION ( 'NONE',  ( 1.000000000000000000, 0.000000000000000000, 0.000000000000000000 ) ) ;
#93 = EDGE_LOOP ( 'NONE', ( #15, #99, #236, #45 ) ) ;
#94 = CARTESIAN_POINT ( 'NONE',  ( 0.000000000000000000, 0.000000000000000000, 3.000000000000000000 ) ) ;
#95 = VECTOR ( 'NONE', #170, 1000.000000000000000 ) ;
#96 = VERTEX_POINT ( 'NONE', #185 ) ;
#97 = AXIS2_PLACEMENT_3D ( 'NONE', #256, #33, #115 ) ;
#98 = CARTESIAN_POINT ( 'NONE',  ( 2.100000000000000089, 2.571758278209441957E-16, 403.0000000000000000 ) ) ;
#99 = ORIENTED_EDGE ( 'NONE', *, *, #254, .F. ) ;
#100 = FACE_OUTER_BOUND ( 'NONE', #142, .T. ) ;
#101 = DIRECTION ( 'NONE',  ( 0.000000000000000000, 0.000000000000000000, 1.000000000000000000 ) ) ;
#102 = EDGE_LOOP ( 'NONE', ( #8, #108 ) ) ;
#103 = APPROVAL ( #148, 'NEURÈENÝ' ) ;
#104 = COORDINATED_UNIVERSAL_TIME_OFFSET ( 1, 0, .AHEAD. ) ;
#105 = CARTESIAN_POINT ( 'NONE',  ( 0.000000000000000000, 0.000000000000000000, 3.199999999999980638 ) ) ;
#106 = ORIENTED_EDGE ( 'NONE', *, *, #265, .T. ) ;
#107 = ADVANCED_FACE ( 'NONE', ( #61 ), #37, .F. ) ;
#108 = ORIENTED_EDGE ( 'NONE', *, *, #189, .T. ) ;
#109 = DATE_AND_TIME ( #177, #160 ) ;
#110 = APPROVAL_PERSON_ORGANIZATION ( #155, #296, #57 ) ;
#111 = ORIENTED_EDGE ( 'NONE', *, *, #189, .F. ) ;
#112 = APPROVAL_STATUS ( 'not_yet_approved' ) ;
#113 = DIRECTION ( 'NONE',  ( 1.000000000000000000, 0.000000000000000000, 0.000000000000000000 ) ) ;
#114 = CC_DESIGN_PERSON_AND_ORGANIZATION_ASSIGNMENT ( #127, #222, ( #5 ) ) ;
#115 = DIRECTION ( 'NONE',  ( 1.000000000000000000, 0.000000000000000000, 0.000000000000000000 ) ) ;
#116 = DIRECTION ( 'NONE',  ( -1.000000000000000000, 0.000000000000000000, 0.000000000000000000 ) ) ;
#117 = DIRECTION ( 'NONE',  ( 1.000000000000000000, 0.000000000000000000, 0.000000000000000000 ) ) ;
#118 = CARTESIAN_POINT ( 'NONE',  ( 0.000000000000000000, 0.000000000000000000, 3.000000000000000000 ) ) ;
#119 = ORIENTED_EDGE ( 'NONE', *, *, #229, .T. ) ;
#120 = CIRCLE ( 'NONE', #264, 0.2000000000000000944 ) ;
#121 = CARTESIAN_POINT ( 'NONE',  ( 2.300000000000000266, 0.000000000000000000, 2.999999999999990674 ) ) ;
#122 = ORIENTED_EDGE ( 'NONE', *, *, #254, .T. ) ;
#123 = CARTESIAN_POINT ( 'NONE',  ( 0.000000000000000000, 0.000000000000000000, 0.000000000000000000 ) ) ;
#124 = CIRCLE ( 'NONE', #241, 2.300000000000000266 ) ;
#125 = DIRECTION ( 'NONE',  ( 1.000000000000000000, 0.000000000000000000, 0.000000000000000000 ) ) ;
#126 = APPROVAL ( #112, 'NEURÈENÝ' ) ;
#127 = PERSON_AND_ORGANIZATION ( #307, #192 ) ;
#128 = PERSON_AND_ORGANIZATION ( #307, #192 ) ;
#129 = AXIS2_PLACEMENT_3D ( 'NONE', #66, #41, #144 ) ;
#130 = EDGE_CURVE ( 'NONE', #214, #1, #166, .T. ) ;
#131 = AXIS2_PLACEMENT_3D ( 'NONE', #226, #81, #136 ) ;
#132 = DIRECTION ( 'NONE',  ( -0.000000000000000000, -0.000000000000000000, -1.000000000000000000 ) ) ;
#133 = COORDINATED_UNIVERSAL_TIME_OFFSET ( 1, 0, .AHEAD. ) ;
#134 = DIRECTION ( 'NONE',  ( 1.000000000000000000, 0.000000000000000000, 0.000000000000000000 ) ) ;
#135 = AXIS2_PLACEMENT_3D ( 'NONE', #123, #262, #43 ) ;
#136 = DIRECTION ( 'NONE',  ( -1.000000000000000000, 0.000000000000000000, 0.000000000000000000 ) ) ;
#137 = ADVANCED_BREP_SHAPE_REPRESENTATION ( '6d83', ( #268, #135 ), #178 ) ;
#138 = AXIS2_PLACEMENT_3D ( 'NONE', #65, #101, #305 ) ;
#139 = UNCERTAINTY_MEASURE_WITH_UNIT (LENGTH_MEASURE( 1.000000000000000082E-05 ), #277, 'distance_accuracy_value', 'NONE');
#140 = ORIENTED_EDGE ( 'NONE', *, *, #69, .F. ) ;
#141 = DIRECTION ( 'NONE',  ( -0.000000000000000000, -0.000000000000000000, -1.000000000000000000 ) ) ;
#142 = EDGE_LOOP ( 'NONE', ( #223, #205, #24, #67 ) ) ;
#143 = DIRECTION ( 'NONE',  ( 0.000000000000000000, 0.000000000000000000, 1.000000000000000000 ) ) ;
#144 = DIRECTION ( 'NONE',  ( 1.000000000000000000, 0.000000000000000000, -0.000000000000000000 ) ) ;
#145 = ORIENTED_EDGE ( 'NONE', *, *, #248, .T. ) ;
#146 = LINE ( 'NONE', #242, #82 ) ;
#147 = ORIENTED_EDGE ( 'NONE', *, *, #9, .T. ) ;
#148 = APPROVAL_STATUS ( 'not_yet_approved' ) ;
#149 = CARTESIAN_POINT ( 'NONE',  ( 0.000000000000000000, 0.000000000000000000, 403.0000000000000000 ) ) ;
#150 = CARTESIAN_POINT ( 'NONE',  ( -2.100000000000000089, 0.000000000000000000, 403.0000000000000000 ) ) ;
#151 = APPROVAL_DATE_TIME ( #54, #126 ) ;
#152 = CIRCLE ( 'NONE', #232, 2.300000000000000266 ) ;
#153 = CARTESIAN_POINT ( 'NONE',  ( 0.000000000000000000, 0.000000000000000000, 3.000000000000000000 ) ) ;
#154 = VECTOR ( 'NONE', #243, 1000.000000000000000 ) ;
#155 = PERSON_AND_ORGANIZATION ( #307, #192 ) ;
#156 = CC_DESIGN_PERSON_AND_ORGANIZATION_ASSIGNMENT ( #227, #158, ( #297 ) ) ;
#157 = CARTESIAN_POINT ( 'NONE',  ( 4.000000000000000000, 4.898587196589412829E-16, 0.000000000000000000 ) ) ;
#158 = PERSON_AND_ORGANIZATION_ROLE ( 'classification_officer' ) ;
#159 = EDGE_CURVE ( 'NONE', #169, #56, #11, .T. ) ;
#160 = LOCAL_TIME ( 12, 7, 11.00000000000000000, #25 ) ;
#161 = DIRECTION ( 'NONE',  ( 1.000000000000000000, 0.000000000000000000, 0.000000000000000000 ) ) ;
#162 = ORIENTED_EDGE ( 'NONE', *, *, #229, .F. ) ;
#163 = AXIS2_PLACEMENT_3D ( 'NONE', #94, #36, #196 ) ;
#164 = DIRECTION ( 'NONE',  ( -0.000000000000000000, -0.000000000000000000, -1.000000000000000000 ) ) ;
#165 = DESIGN_CONTEXT ( 'detailed design', #91, 'design' ) ;
#166 = CIRCLE ( 'NONE', #27, 4.000000000000000000 ) ;
#167 = DIRECTION ( 'NONE',  ( -1.000000000000000000, 0.000000000000000000, 0.000000000000000000 ) ) ;
#168 = CARTESIAN_POINT ( 'NONE',  ( 0.000000000000000000, 0.000000000000000000, 403.0000000000000000 ) ) ;
#169 = VERTEX_POINT ( 'NONE', #157 ) ;
#170 = DIRECTION ( 'NONE',  ( -0.000000000000000000, -0.000000000000000000, -1.000000000000000000 ) ) ;
#171 = ORIENTED_EDGE ( 'NONE', *, *, #228, .F. ) ;
#172 = DIRECTION ( 'NONE',  ( -0.000000000000000000, -0.000000000000000000, -1.000000000000000000 ) ) ;
#173 = CC_DESIGN_APPROVAL ( #296, ( #297 ) ) ;
#174 = DIRECTION ( 'NONE',  ( 1.000000000000000000, 0.000000000000000000, 0.000000000000000000 ) ) ;
#175 = APPROVAL_DATE_TIME ( #78, #103 ) ;
#176 = APPLICATION_CONTEXT ( 'configuration controlled 3d designs of mechanical parts and assemblies' ) ;
#177 = CALENDAR_DATE ( 2022, 20, 6 ) ;
#178 =( GEOMETRIC_REPRESENTATION_CONTEXT ( 3 ) GLOBAL_UNCERTAINTY_ASSIGNED_CONTEXT ( ( #139 ) ) GLOBAL_UNIT_ASSIGNED_CONTEXT ( ( #277, #190, #74 ) ) REPRESENTATION_CONTEXT ( 'NONE', 'WORKASPACE' ) );
#179 = CARTESIAN_POINT ( 'NONE',  ( 0.000000000000000000, 0.000000000000000000, 403.0000000000000000 ) ) ;
#180 = DATE_AND_TIME ( #207, #85 ) ;
#181 = CARTESIAN_POINT ( 'NONE',  ( -2.100000000000000089, 0.000000000000000000, 3.199999999999980638 ) ) ;
#182 = EDGE_CURVE ( 'NONE', #56, #169, #87, .T. ) ;
#183 = DIRECTION ( 'NONE',  ( 0.000000000000000000, 0.000000000000000000, 1.000000000000000000 ) ) ;
#184 = CIRCLE ( 'NONE', #253, 2.100000000000000089 ) ;
#185 = CARTESIAN_POINT ( 'NONE',  ( -2.100000000000000089, 0.000000000000000000, 403.0000000000000000 ) ) ;
#186 = EDGE_CURVE ( 'NONE', #214, #56, #75, .T. ) ;
#187 = APPROVAL_PERSON_ORGANIZATION ( #46, #103, #306 ) ;
#188 = FACE_OUTER_BOUND ( 'NONE', #70, .T. ) ;
#189 = EDGE_CURVE ( 'NONE', #1, #214, #231, .T. ) ;
#190 =( NAMED_UNIT ( * ) PLANE_ANGLE_UNIT ( ) SI_UNIT ( $, .RADIAN. ) );
#191 = ORIENTED_EDGE ( 'NONE', *, *, #69, .T. ) ;
#192 = ORGANIZATION ( 'NEURÈENÝ', 'NEURÈENÝ', '' ) ;
#193 = CARTESIAN_POINT ( 'NONE',  ( 0.000000000000000000, 0.000000000000000000, 3.000000000000000000 ) ) ;
#194 = AXIS2_PLACEMENT_3D ( 'NONE', #255, #38, #117 ) ;
#195 = ADVANCED_FACE ( 'NONE', ( #278 ), #72, .T. ) ;
#196 = DIRECTION ( 'NONE',  ( 1.000000000000000000, 0.000000000000000000, -0.000000000000000000 ) ) ;
#197 = CARTESIAN_POINT ( 'NONE',  ( 0.000000000000000000, 0.000000000000000000, 403.0000000000000000 ) ) ;
#198 = DIRECTION ( 'NONE',  ( -1.000000000000000000, 1.224646799147353207E-16, 0.000000000000000000 ) ) ;
#199 = DIRECTION ( 'NONE',  ( 0.000000000000000000, 0.000000000000000000, 1.000000000000000000 ) ) ;
#200 = VERTEX_POINT ( 'NONE', #121 ) ;
#201 = CALENDAR_DATE ( 2022, 20, 6 ) ;
#202 = CIRCLE ( 'NONE', #60, 2.100000000000000089 ) ;
#203 = ORIENTED_EDGE ( 'NONE', *, *, #47, .T. ) ;
#204 = CALENDAR_DATE ( 2022, 20, 6 ) ;
#205 = ORIENTED_EDGE ( 'NONE', *, *, #130, .F. ) ;
#206 = AXIS2_PLACEMENT_3D ( 'NONE', #288, #143, #280 ) ;
#207 = CALENDAR_DATE ( 2022, 20, 6 ) ;
#208 = CLOSED_SHELL ( 'NONE', ( #107, #195, #19, #299, #295, #234, #287, #209, #39 ) ) ;
#209 = ADVANCED_FACE ( 'NONE', ( #260 ), #239, .T. ) ;
#210 = DIRECTION ( 'NONE',  ( 0.000000000000000000, 0.000000000000000000, -1.000000000000000000 ) ) ;
#211 = CC_DESIGN_PERSON_AND_ORGANIZATION_ASSIGNMENT ( #271, #6, ( #76 ) ) ;
#212 = CARTESIAN_POINT ( 'NONE',  ( -4.000000000000000000, 0.000000000000000000, 3.000000000000000000 ) ) ;
#213 = FACE_OUTER_BOUND ( 'NONE', #102, .T. ) ;
#214 = VERTEX_POINT ( 'NONE', #298 ) ;
#215 = DIRECTION ( 'NONE',  ( 1.000000000000000000, 0.000000000000000000, 0.000000000000000000 ) ) ;
#216 = CC_DESIGN_APPROVAL ( #126, ( #76 ) ) ;
#217 = CYLINDRICAL_SURFACE ( 'NONE', #2, 2.100000000000000089 ) ;
#218 = LINE ( 'NONE', #98, #95 ) ;
#219 = ORIENTED_EDGE ( 'NONE', *, *, #159, .F. ) ;
#220 = CARTESIAN_POINT ( 'NONE',  ( 0.000000000000000000, 0.000000000000000000, 3.199999999999980638 ) ) ;
#221 = ORIENTED_EDGE ( 'NONE', *, *, #47, .F. ) ;
#222 = PERSON_AND_ORGANIZATION_ROLE ( 'design_owner' ) ;
#223 = ORIENTED_EDGE ( 'NONE', *, *, #257, .F. ) ;
#224 = SHAPE_DEFINITION_REPRESENTATION ( #273, #137 ) ;
#225 = LOCAL_TIME ( 12, 7, 11.00000000000000000, #133 ) ;
#226 = CARTESIAN_POINT ( 'NONE',  ( 0.000000000000000000, 0.000000000000000000, 3.000000000000000000 ) ) ;
#227 = PERSON_AND_ORGANIZATION ( #307, #192 ) ;
#228 = EDGE_CURVE ( 'NONE', #286, #258, #218, .T. ) ;
#229 = EDGE_CURVE ( 'NONE', #96, #286, #184, .T. ) ;
#230 = EDGE_CURVE ( 'NONE', #258, #200, #302, .T. ) ;
#231 = CIRCLE ( 'NONE', #293, 4.000000000000000000 ) ;
#232 = AXIS2_PLACEMENT_3D ( 'NONE', #118, #40, #215 ) ;
#233 = ORIENTED_EDGE ( 'NONE', *, *, #228, .T. ) ;
#234 = ADVANCED_FACE ( 'NONE', ( #188 ), #275, .F. ) ;
#235 = CARTESIAN_POINT ( 'NONE',  ( 2.100000000000000089, 2.571758278209441957E-16, 3.199999999999980638 ) ) ;
#236 = ORIENTED_EDGE ( 'NONE', *, *, #230, .T. ) ;
#237 = LOCAL_TIME ( 12, 7, 11.00000000000000000, #104 ) ;
#238 = CARTESIAN_POINT ( 'NONE',  ( 2.100000000000000089, 2.571758278209441957E-16, 403.0000000000000000 ) ) ;
#239 = PLANE ( 'NONE',  #129 ) ;
#240 = ORIENTED_EDGE ( 'NONE', *, *, #9, .F. ) ;
#241 = AXIS2_PLACEMENT_3D ( 'NONE', #153, #132, #174 ) ;
#242 = CARTESIAN_POINT ( 'NONE',  ( 4.000000000000000000, 4.898587196589412829E-16, 3.000000000000000000 ) ) ;
#243 = DIRECTION ( 'NONE',  ( -0.000000000000000000, -0.000000000000000000, -1.000000000000000000 ) ) ;
#244 = APPROVAL_ROLE ( '' ) ;
#245 = CIRCLE ( 'NONE', #206, 2.100000000000000089 ) ;
#246 = CARTESIAN_POINT ( 'NONE',  ( -2.300000000000000266, 2.816687638038912549E-16, 2.999999999999990674 ) ) ;
#247 = COORDINATED_UNIVERSAL_TIME_OFFSET ( 1, 0, .AHEAD. ) ;
#248 = EDGE_CURVE ( 'NONE', #21, #258, #202, .T. ) ;
#249 = FACE_OUTER_BOUND ( 'NONE', #77, .T. ) ;
#250 = PERSON_AND_ORGANIZATION_ROLE ( 'creator' ) ;
#251 = PRODUCT_RELATED_PRODUCT_CATEGORY ( 'detail', '', ( #5 ) ) ;
#252 = DATE_AND_TIME ( #59, #225 ) ;
#253 = AXIS2_PLACEMENT_3D ( 'NONE', #197, #285, #161 ) ;
#254 = EDGE_CURVE ( 'NONE', #258, #21, #245, .T. ) ;
#255 = CARTESIAN_POINT ( 'NONE',  ( 0.000000000000000000, 0.000000000000000000, 0.000000000000000000 ) ) ;
#256 = CARTESIAN_POINT ( 'NONE',  ( 0.000000000000000000, 0.000000000000000000, 0.000000000000000000 ) ) ;
#257 = EDGE_CURVE ( 'NONE', #1, #169, #146, .T. ) ;
#258 = VERTEX_POINT ( 'NONE', #235 ) ;
#259 = AXIS2_PLACEMENT_3D ( 'NONE', #62, #86, #113 ) ;
#260 = FACE_OUTER_BOUND ( 'NONE', #276, .T. ) ;
#261 = ORIENTED_EDGE ( 'NONE', *, *, #257, .T. ) ;
#262 = DIRECTION ( 'NONE',  ( 0.000000000000000000, 0.000000000000000000, 1.000000000000000000 ) ) ;
#263 = CARTESIAN_POINT ( 'NONE',  ( 2.300000000000000266, 0.000000000000000000, 3.199999999999980638 ) ) ;
#264 = AXIS2_PLACEMENT_3D ( 'NONE', #68, #16, #198 ) ;
#265 = EDGE_CURVE ( 'NONE', #21, #89, #120, .T. ) ;
#266 = DIRECTION ( 'NONE',  ( 1.000000000000000000, 0.000000000000000000, 0.000000000000000000 ) ) ;
#267 = LINE ( 'NONE', #150, #154 ) ;
#268 = MANIFOLD_SOLID_BREP ( 'Zaoblit1', #208 ) ;
#269 = ORIENTED_EDGE ( 'NONE', *, *, #182, .F. ) ;
#270 = PERSON_AND_ORGANIZATION ( #307, #192 ) ;
#271 = PERSON_AND_ORGANIZATION ( #307, #192 ) ;
#272 = DIRECTION ( 'NONE',  ( 1.000000000000000000, 0.000000000000000000, 0.000000000000000000 ) ) ;
#273 = PRODUCT_DEFINITION_SHAPE ( 'NONE', 'NONE',  #55 ) ;
#274 = EDGE_CURVE ( 'NONE', #89, #200, #152, .T. ) ;
#275 = PLANE ( 'NONE',  #138 ) ;
#276 = EDGE_LOOP ( 'NONE', ( #119, #147 ) ) ;
#277 =( LENGTH_UNIT ( ) NAMED_UNIT ( * ) SI_UNIT ( .MILLI., .METRE. ) );
#278 = FACE_OUTER_BOUND ( 'NONE', #279, .T. ) ;
#279 = EDGE_LOOP ( 'NONE', ( #240, #233, #122, #140 ) ) ;
#280 = DIRECTION ( 'NONE',  ( 1.000000000000000000, 0.000000000000000000, 0.000000000000000000 ) ) ;
#281 = TOROIDAL_SURFACE ( 'NONE', #64, 2.300000000000000266, 0.2000000000000000111 ) ;
#282 = DIRECTION ( 'NONE',  ( 0.000000000000000000, 0.000000000000000000, 1.000000000000000000 ) ) ;
#283 = ORIENTED_EDGE ( 'NONE', *, *, #248, .F. ) ;
#284 = DIRECTION ( 'NONE',  ( -0.000000000000000000, -0.000000000000000000, -1.000000000000000000 ) ) ;
#285 = DIRECTION ( 'NONE',  ( 0.000000000000000000, 0.000000000000000000, 1.000000000000000000 ) ) ;
#286 = VERTEX_POINT ( 'NONE', #238 ) ;
#287 = ADVANCED_FACE ( 'NONE', ( #301 ), #217, .T. ) ;
#288 = CARTESIAN_POINT ( 'NONE',  ( 0.000000000000000000, 0.000000000000000000, 3.199999999999980638 ) ) ;
#289 = CARTESIAN_POINT ( 'NONE',  ( -4.000000000000000000, 0.000000000000000000, 0.000000000000000000 ) ) ;
#290 = PERSON_AND_ORGANIZATION_ROLE ( 'creator' ) ;
#291 = ORIENTED_EDGE ( 'NONE', *, *, #186, .F. ) ;
#292 = CC_DESIGN_DATE_AND_TIME_ASSIGNMENT ( #109, #28, ( #297 ) ) ;
#293 = AXIS2_PLACEMENT_3D ( 'NONE', #88, #282, #92 ) ;
#294 = AXIS2_PLACEMENT_3D ( 'NONE', #179, #83, #134 ) ;
#295 = ADVANCED_FACE ( 'NONE', ( #71, #213 ), #300, .T. ) ;
#296 = APPROVAL ( #4, 'NEURÈENÝ' ) ;
#297 = SECURITY_CLASSIFICATION ( '', '', #84 ) ;
#298 = CARTESIAN_POINT ( 'NONE',  ( -4.000000000000000000, 0.000000000000000000, 3.000000000000000000 ) ) ;
#299 = ADVANCED_FACE ( 'NONE', ( #100 ), #90, .T. ) ;
#300 = PLANE ( 'NONE',  #163 ) ;
#301 = FACE_OUTER_BOUND ( 'NONE', #49, .T. ) ;
#302 = CIRCLE ( 'NONE', #7, 0.2000000000000000944 ) ;
#303 = ORIENTED_EDGE ( 'NONE', *, *, #230, .F. ) ;
#304 = APPLICATION_PROTOCOL_DEFINITION ( 'international standard', 'config_control_design', 1994, #91 ) ;
#305 = DIRECTION ( 'NONE',  ( 1.000000000000000000, 0.000000000000000000, -0.000000000000000000 ) ) ;
#306 = APPROVAL_ROLE ( '' ) ;
#307 = PERSON ( 'NEURÈENÝ', 'NEURÈENÝ', 'NEURÈENÝ', ('NEURÈENÝ'), ('NEURÈENÝ'), ('NEURÈENÝ') ) ;
ENDSEC;
END-ISO-10303-21;
