ISO-10303-21;
HEADER;
FILE_DESCRIPTION (( 'STEP AP203' ),
    '1' );
FILE_NAME ('7510.STEP',
    '2022-06-20T10:00:41',
    ( '' ),
    ( '' ),
    'SwSTEP 2.0',
    'SolidWorks 2019',
    '' );
FILE_SCHEMA (( 'CONFIG_CONTROL_DESIGN' ));
ENDSEC;

DATA;
#1 = AXIS2_PLACEMENT_3D ( 'NONE', #88, #18, #210 ) ;
#2 = DIRECTION ( 'NONE',  ( 0.000000000000000000, 0.000000000000000000, 1.000000000000000000 ) ) ;
#3 = ORIENTED_EDGE ( 'NONE', *, *, #292, .F. ) ;
#4 = ORIENTED_EDGE ( 'NONE', *, *, #244, .T. ) ;
#5 = VERTEX_POINT ( 'NONE', #206 ) ;
#6 = VECTOR ( 'NONE', #277, 1000.000000000000000 ) ;
#7 = ORIENTED_EDGE ( 'NONE', *, *, #202, .T. ) ;
#8 = EDGE_CURVE ( 'NONE', #293, #77, #103, .T. ) ;
#9 = CIRCLE ( 'NONE', #215, 2.750000000000000000 ) ;
#10 = ORIENTED_EDGE ( 'NONE', *, *, #137, .F. ) ;
#11 = DIRECTION ( 'NONE',  ( 1.000000000000000000, 0.000000000000000000, 0.000000000000000000 ) ) ;
#12 = PERSON_AND_ORGANIZATION ( #147, #170 ) ;
#13 = DIRECTION ( 'NONE',  ( 1.000000000000000000, 0.000000000000000000, 0.000000000000000000 ) ) ;
#14 = FACE_OUTER_BOUND ( 'NONE', #78, .T. ) ;
#15 = DATE_TIME_ROLE ( 'creation_date' ) ;
#16 = DIRECTION ( 'NONE',  ( 0.000000000000000000, 0.000000000000000000, 1.000000000000000000 ) ) ;
#17 = CARTESIAN_POINT ( 'NONE',  ( -2.949999999999999734, 3.612708057484692097E-16, 3.199999999999994404 ) ) ;
#18 = DIRECTION ( 'NONE',  ( 0.000000000000000000, 0.000000000000000000, 1.000000000000000000 ) ) ;
#19 = MANIFOLD_SOLID_BREP ( 'Zaoblit1', #162 ) ;
#20 = DIRECTION ( 'NONE',  ( 0.000000000000000000, 0.000000000000000000, 1.000000000000000000 ) ) ;
#21 = AXIS2_PLACEMENT_3D ( 'NONE', #260, #307, #13 ) ;
#22 = PLANE ( 'NONE',  #90 ) ;
#23 = CARTESIAN_POINT ( 'NONE',  ( 2.949999999999999734, 0.000000000000000000, 2.999999999999997335 ) ) ;
#24 = ORIENTED_EDGE ( 'NONE', *, *, #118, .F. ) ;
#25 = CIRCLE ( 'NONE', #204, 5.000000000000000000 ) ;
#26 = FACE_BOUND ( 'NONE', #294, .T. ) ;
#27 = AXIS2_PLACEMENT_3D ( 'NONE', #265, #112, #302 ) ;
#28 = ORIENTED_EDGE ( 'NONE', *, *, #99, .T. ) ;
#29 =( LENGTH_UNIT ( ) NAMED_UNIT ( * ) SI_UNIT ( .MILLI., .METRE. ) );
#30 = AXIS2_PLACEMENT_3D ( 'NONE', #258, #35, #128 ) ;
#31 = ORIENTED_EDGE ( 'NONE', *, *, #152, .F. ) ;
#32 = DIRECTION ( 'NONE',  ( 1.000000000000000000, 0.000000000000000000, 0.000000000000000000 ) ) ;
#33 = APPROVAL_STATUS ( 'not_yet_approved' ) ;
#34 = CIRCLE ( 'NONE', #114, 0.2000000000000000944 ) ;
#35 = DIRECTION ( 'NONE',  ( -0.000000000000000000, -0.000000000000000000, -1.000000000000000000 ) ) ;
#36 = AXIS2_PLACEMENT_3D ( 'NONE', #89, #234, #287 ) ;
#37 = CARTESIAN_POINT ( 'NONE',  ( 0.000000000000000000, 0.000000000000000000, 3.199999999999994404 ) ) ;
#38 = DATE_AND_TIME ( #238, #273 ) ;
#39 = CC_DESIGN_DATE_AND_TIME_ASSIGNMENT ( #38, #15, ( #297 ) ) ;
#40 = DATE_AND_TIME ( #86, #212 ) ;
#41 = APPROVAL ( #33, 'NEURÈENÝ' ) ;
#42 = DATE_AND_TIME ( #306, #276 ) ;
#43 = CARTESIAN_POINT ( 'NONE',  ( 0.000000000000000000, 0.000000000000000000, 3.000000000000000000 ) ) ;
#44 = CC_DESIGN_PERSON_AND_ORGANIZATION_ASSIGNMENT ( #264, #60, ( #229 ) ) ;
#45 = EDGE_CURVE ( 'NONE', #248, #180, #9, .T. ) ;
#46 = CC_DESIGN_PERSON_AND_ORGANIZATION_ASSIGNMENT ( #12, #111, ( #115 ) ) ;
#47 = CARTESIAN_POINT ( 'NONE',  ( 0.000000000000000000, 0.000000000000000000, 3.000000000000000000 ) ) ;
#48 = CIRCLE ( 'NONE', #225, 5.000000000000000000 ) ;
#49 = APPROVAL_DATE_TIME ( #233, #41 ) ;
#50 = VECTOR ( 'NONE', #216, 1000.000000000000000 ) ;
#51 = AXIS2_PLACEMENT_3D ( 'NONE', #76, #116, #219 ) ;
#52 = UNCERTAINTY_MEASURE_WITH_UNIT (LENGTH_MEASURE( 1.000000000000000082E-05 ), #29, 'distance_accuracy_value', 'NONE');
#53 = DIRECTION ( 'NONE',  ( -0.000000000000000000, -0.000000000000000000, -1.000000000000000000 ) ) ;
#54 = EDGE_LOOP ( 'NONE', ( #175, #171, #274, #24 ) ) ;
#55 = APPLICATION_CONTEXT ( 'configuration controlled 3d designs of mechanical parts and assemblies' ) ;
#56 = EDGE_LOOP ( 'NONE', ( #3, #94 ) ) ;
#57 = DIRECTION ( 'NONE',  ( 1.000000000000000000, 0.000000000000000000, -0.000000000000000000 ) ) ;
#58 = ORIENTED_EDGE ( 'NONE', *, *, #298, .F. ) ;
#59 = FACE_OUTER_BOUND ( 'NONE', #65, .T. ) ;
#60 = PERSON_AND_ORGANIZATION_ROLE ( 'design_owner' ) ;
#61 = FACE_OUTER_BOUND ( 'NONE', #56, .T. ) ;
#62 = PLANE ( 'NONE',  #1 ) ;
#63 = APPROVAL_STATUS ( 'not_yet_approved' ) ;
#64 = FACE_OUTER_BOUND ( 'NONE', #81, .T. ) ;
#65 = EDGE_LOOP ( 'NONE', ( #247, #7, #172, #218 ) ) ;
#66 = PERSON_AND_ORGANIZATION ( #147, #170 ) ;
#67 = APPLICATION_CONTEXT ( 'configuration controlled 3d designs of mechanical parts and assemblies' ) ;
#68 = CARTESIAN_POINT ( 'NONE',  ( 0.000000000000000000, 0.000000000000000000, 0.000000000000000000 ) ) ;
#69 = ADVANCED_FACE ( 'NONE', ( #59 ), #154, .T. ) ;
#70 = EDGE_CURVE ( 'NONE', #254, #271, #127, .T. ) ;
#71 = CALENDAR_DATE ( 2022, 20, 6 ) ;
#72 = CIRCLE ( 'NONE', #21, 2.949999999999999734 ) ;
#73 = PLANE ( 'NONE',  #186 ) ;
#74 = CYLINDRICAL_SURFACE ( 'NONE', #282, 2.750000000000000000 ) ;
#75 = EDGE_CURVE ( 'NONE', #248, #142, #214, .T. ) ;
#76 = CARTESIAN_POINT ( 'NONE',  ( 0.000000000000000000, 0.000000000000000000, 3.199999999999994404 ) ) ;
#77 = VERTEX_POINT ( 'NONE', #184 ) ;
#78 = EDGE_LOOP ( 'NONE', ( #58, #82, #279, #125 ) ) ;
#79 = CARTESIAN_POINT ( 'NONE',  ( -2.750000000000000000, 0.000000000000000000, 103.0000000000000142 ) ) ;
#80 = CIRCLE ( 'NONE', #249, 2.750000000000000000 ) ;
#81 = EDGE_LOOP ( 'NONE', ( #10, #203, #100, #31 ) ) ;
#82 = ORIENTED_EDGE ( 'NONE', *, *, #99, .F. ) ;
#83 = ORIENTED_EDGE ( 'NONE', *, *, #168, .T. ) ;
#84 = LINE ( 'NONE', #269, #102 ) ;
#85 = EDGE_CURVE ( 'NONE', #5, #77, #48, .T. ) ;
#86 = CALENDAR_DATE ( 2022, 20, 6 ) ;
#87 = CARTESIAN_POINT ( 'NONE',  ( 0.000000000000000000, 0.000000000000000000, 103.0000000000000142 ) ) ;
#88 = CARTESIAN_POINT ( 'NONE',  ( 0.000000000000000000, 0.000000000000000000, 0.000000000000000000 ) ) ;
#89 = CARTESIAN_POINT ( 'NONE',  ( 0.000000000000000000, 0.000000000000000000, 3.000000000000000000 ) ) ;
#90 = AXIS2_PLACEMENT_3D ( 'NONE', #47, #20, #57 ) ;
#91 = DIRECTION ( 'NONE',  ( -0.000000000000000000, -0.000000000000000000, -1.000000000000000000 ) ) ;
#92 = APPROVAL ( #63, 'NEURÈENÝ' ) ;
#93 = AXIS2_PLACEMENT_3D ( 'NONE', #43, #110, #158 ) ;
#94 = ORIENTED_EDGE ( 'NONE', *, *, #85, .F. ) ;
#95 = DIRECTION ( 'NONE',  ( 0.000000000000000000, 0.000000000000000000, 1.000000000000000000 ) ) ;
#96 = EDGE_LOOP ( 'NONE', ( #28, #83 ) ) ;
#97 = CARTESIAN_POINT ( 'NONE',  ( 0.000000000000000000, 0.000000000000000000, 103.0000000000000142 ) ) ;
#98 = ADVANCED_FACE ( 'NONE', ( #136 ), #189, .T. ) ;
#99 = EDGE_CURVE ( 'NONE', #293, #201, #25, .T. ) ;
#100 = ORIENTED_EDGE ( 'NONE', *, *, #118, .T. ) ;
#101 = AXIS2_PLACEMENT_3D ( 'NONE', #213, #305, #239 ) ;
#102 = VECTOR ( 'NONE', #53, 1000.000000000000000 ) ;
#103 = LINE ( 'NONE', #299, #6 ) ;
#104 = EDGE_LOOP ( 'NONE', ( #117, #178 ) ) ;
#105 = CIRCLE ( 'NONE', #288, 2.750000000000000000 ) ;
#106 = APPROVAL_PERSON_ORGANIZATION ( #130, #41, #228 ) ;
#107 = CARTESIAN_POINT ( 'NONE',  ( 0.000000000000000000, 0.000000000000000000, 3.000000000000000000 ) ) ;
#108 = COORDINATED_UNIVERSAL_TIME_OFFSET ( 1, 0, .AHEAD. ) ;
#109 = APPLICATION_PROTOCOL_DEFINITION ( 'international standard', 'config_control_design', 1994, #67 ) ;
#110 = DIRECTION ( 'NONE',  ( -0.000000000000000000, -0.000000000000000000, -1.000000000000000000 ) ) ;
#111 = PERSON_AND_ORGANIZATION_ROLE ( 'design_supplier' ) ;
#112 = DIRECTION ( 'NONE',  ( 0.000000000000000000, 0.000000000000000000, 1.000000000000000000 ) ) ;
#113 = CARTESIAN_POINT ( 'NONE',  ( 5.000000000000000000, 6.123233995736766282E-16, 3.000000000000000000 ) ) ;
#114 = AXIS2_PLACEMENT_3D ( 'NONE', #17, #191, #285 ) ;
#115 = PRODUCT_DEFINITION_FORMATION_WITH_SPECIFIED_SOURCE ( 'LIBOVOLNÝ', '', #229, .NOT_KNOWN. ) ;
#116 = DIRECTION ( 'NONE',  ( 0.000000000000000000, 0.000000000000000000, 1.000000000000000000 ) ) ;
#117 = ORIENTED_EDGE ( 'NONE', *, *, #45, .T. ) ;
#118 = EDGE_CURVE ( 'NONE', #226, #254, #131, .T. ) ;
#119 = ADVANCED_FACE ( 'NONE', ( #61 ), #62, .F. ) ;
#120 = CC_DESIGN_SECURITY_CLASSIFICATION ( #251, ( #115 ) ) ;
#121 = ORIENTED_EDGE ( 'NONE', *, *, #168, .F. ) ;
#122 = CC_DESIGN_PERSON_AND_ORGANIZATION_ASSIGNMENT ( #192, #155, ( #251 ) ) ;
#123 = MECHANICAL_CONTEXT ( 'NONE', #55, 'mechanical' ) ;
#124 = LOCAL_TIME ( 12, 0, 41.00000000000000000, #207 ) ;
#125 = ORIENTED_EDGE ( 'NONE', *, *, #292, .T. ) ;
#126 = ORIENTED_EDGE ( 'NONE', *, *, #202, .F. ) ;
#127 = CIRCLE ( 'NONE', #240, 2.949999999999999734 ) ;
#128 = DIRECTION ( 'NONE',  ( -1.000000000000000000, 0.000000000000000000, 0.000000000000000000 ) ) ;
#129 = CARTESIAN_POINT ( 'NONE',  ( 5.000000000000000000, 6.123233995736766282E-16, 3.000000000000000000 ) ) ;
#130 = PERSON_AND_ORGANIZATION ( #147, #170 ) ;
#131 = CIRCLE ( 'NONE', #101, 0.2000000000000000944 ) ;
#132 = PERSON_AND_ORGANIZATION ( #147, #170 ) ;
#133 = AXIS2_PLACEMENT_3D ( 'NONE', #37, #167, #263 ) ;
#134 = APPROVAL_DATE_TIME ( #42, #295 ) ;
#135 = CC_DESIGN_PERSON_AND_ORGANIZATION_ASSIGNMENT ( #286, #188, ( #115 ) ) ;
#136 = FACE_OUTER_BOUND ( 'NONE', #227, .T. ) ;
#137 = EDGE_CURVE ( 'NONE', #142, #271, #34, .T. ) ;
#138 = ADVANCED_FACE ( 'NONE', ( #208 ), #73, .T. ) ;
#139 = TOROIDAL_SURFACE ( 'NONE', #27, 2.949999999999999734, 0.2000000000000000111 ) ;
#140 = CARTESIAN_POINT ( 'NONE',  ( 0.000000000000000000, 0.000000000000000000, 103.0000000000000142 ) ) ;
#141 = CARTESIAN_POINT ( 'NONE',  ( 0.000000000000000000, 0.000000000000000000, 3.199999999999994404 ) ) ;
#142 = VERTEX_POINT ( 'NONE', #283 ) ;
#143 = DIRECTION ( 'NONE',  ( -1.000000000000000000, 0.000000000000000000, 0.000000000000000000 ) ) ;
#144 = ORIENTED_EDGE ( 'NONE', *, *, #85, .T. ) ;
#145 = AXIS2_PLACEMENT_3D ( 'NONE', #243, #95, #199 ) ;
#146 = CARTESIAN_POINT ( 'NONE',  ( -5.000000000000000000, 0.000000000000000000, 3.000000000000000000 ) ) ;
#147 = PERSON ( 'NEURÈENÝ', 'NEURÈENÝ', 'NEURÈENÝ', ('NEURÈENÝ'), ('NEURÈENÝ'), ('NEURÈENÝ') ) ;
#148 = ADVANCED_FACE ( 'NONE', ( #64 ), #139, .F. ) ;
#149 =( NAMED_UNIT ( * ) PLANE_ANGLE_UNIT ( ) SI_UNIT ( $, .RADIAN. ) );
#150 = ORIENTED_EDGE ( 'NONE', *, *, #70, .T. ) ;
#151 = CARTESIAN_POINT ( 'NONE',  ( 0.000000000000000000, 0.000000000000000000, 103.0000000000000142 ) ) ;
#152 = EDGE_CURVE ( 'NONE', #271, #254, #72, .T. ) ;
#153 = DIRECTION ( 'NONE',  ( 1.000000000000000000, 0.000000000000000000, 0.000000000000000000 ) ) ;
#154 = CYLINDRICAL_SURFACE ( 'NONE', #30, 2.750000000000000000 ) ;
#155 = PERSON_AND_ORGANIZATION_ROLE ( 'classification_officer' ) ;
#156 = DIRECTION ( 'NONE',  ( 0.000000000000000000, 0.000000000000000000, 1.000000000000000000 ) ) ;
#157 = COORDINATED_UNIVERSAL_TIME_OFFSET ( 1, 0, .AHEAD. ) ;
#158 = DIRECTION ( 'NONE',  ( -1.000000000000000000, 0.000000000000000000, 0.000000000000000000 ) ) ;
#159 = PERSON_AND_ORGANIZATION ( #147, #170 ) ;
#160 = DIRECTION ( 'NONE',  ( -1.000000000000000000, 0.000000000000000000, 0.000000000000000000 ) ) ;
#161 = ORIENTED_EDGE ( 'NONE', *, *, #152, .T. ) ;
#162 = CLOSED_SHELL ( 'NONE', ( #255, #69, #98, #187, #270, #119, #211, #138, #148 ) ) ;
#163 = APPROVAL_STATUS ( 'not_yet_approved' ) ;
#164 = DIRECTION ( 'NONE',  ( 0.000000000000000000, 0.000000000000000000, 1.000000000000000000 ) ) ;
#165 = AXIS2_PLACEMENT_3D ( 'NONE', #278, #205, #153 ) ;
#166 = PRODUCT_DEFINITION_SHAPE ( 'NONE', 'NONE',  #297 ) ;
#167 = DIRECTION ( 'NONE',  ( 0.000000000000000000, 0.000000000000000000, 1.000000000000000000 ) ) ;
#168 = EDGE_CURVE ( 'NONE', #201, #293, #241, .T. ) ;
#169 = FACE_OUTER_BOUND ( 'NONE', #54, .T. ) ;
#170 = ORGANIZATION ( 'NEURÈENÝ', 'NEURÈENÝ', '' ) ;
#171 = ORIENTED_EDGE ( 'NONE', *, *, #137, .T. ) ;
#172 = ORIENTED_EDGE ( 'NONE', *, *, #177, .T. ) ;
#173 = CARTESIAN_POINT ( 'NONE',  ( -2.949999999999999734, 3.612708057484692097E-16, 2.999999999999997335 ) ) ;
#174 = PRODUCT_RELATED_PRODUCT_CATEGORY ( 'detail', '', ( #229 ) ) ;
#175 = ORIENTED_EDGE ( 'NONE', *, *, #244, .F. ) ;
#176 = TOROIDAL_SURFACE ( 'NONE', #51, 2.949999999999999734, 0.2000000000000000111 ) ;
#177 = EDGE_CURVE ( 'NONE', #226, #142, #275, .T. ) ;
#178 = ORIENTED_EDGE ( 'NONE', *, *, #280, .T. ) ;
#179 = APPROVAL_PERSON_ORGANIZATION ( #66, #295, #209 ) ;
#180 = VERTEX_POINT ( 'NONE', #300 ) ;
#181 = CYLINDRICAL_SURFACE ( 'NONE', #217, 5.000000000000000000 ) ;
#182 = VECTOR ( 'NONE', #281, 1000.000000000000000 ) ;
#183 = SECURITY_CLASSIFICATION_LEVEL ( 'unclassified' ) ;
#184 = CARTESIAN_POINT ( 'NONE',  ( -5.000000000000000000, 0.000000000000000000, 0.000000000000000000 ) ) ;
#185 = CIRCLE ( 'NONE', #145, 5.000000000000000000 ) ;
#186 = AXIS2_PLACEMENT_3D ( 'NONE', #87, #156, #284 ) ;
#187 = ADVANCED_FACE ( 'NONE', ( #14 ), #181, .T. ) ;
#188 = PERSON_AND_ORGANIZATION_ROLE ( 'creator' ) ;
#189 = CYLINDRICAL_SURFACE ( 'NONE', #93, 5.000000000000000000 ) ;
#190 = APPROVAL_ROLE ( '' ) ;
#191 = DIRECTION ( 'NONE',  ( 1.224646799147353207E-16, 1.000000000000000000, -0.000000000000000000 ) ) ;
#192 = PERSON_AND_ORGANIZATION ( #147, #170 ) ;
#193 = DIRECTION ( 'NONE',  ( 1.000000000000000000, 0.000000000000000000, 0.000000000000000000 ) ) ;
#194 = APPROVAL_PERSON_ORGANIZATION ( #159, #92, #190 ) ;
#195 = CC_DESIGN_APPROVAL ( #41, ( #251 ) ) ;
#196 = CC_DESIGN_DATE_AND_TIME_ASSIGNMENT ( #261, #257, ( #251 ) ) ;
#197 = DIRECTION ( 'NONE',  ( 0.000000000000000000, 0.000000000000000000, 1.000000000000000000 ) ) ;
#198 = SHAPE_DEFINITION_REPRESENTATION ( #166, #222 ) ;
#199 = DIRECTION ( 'NONE',  ( 1.000000000000000000, 0.000000000000000000, 0.000000000000000000 ) ) ;
#200 = ORIENTED_EDGE ( 'NONE', *, *, #8, .F. ) ;
#201 = VERTEX_POINT ( 'NONE', #129 ) ;
#202 = EDGE_CURVE ( 'NONE', #180, #226, #84, .T. ) ;
#203 = ORIENTED_EDGE ( 'NONE', *, *, #177, .F. ) ;
#204 = AXIS2_PLACEMENT_3D ( 'NONE', #262, #164, #232 ) ;
#205 = DIRECTION ( 'NONE',  ( 0.000000000000000000, 0.000000000000000000, 1.000000000000000000 ) ) ;
#206 = CARTESIAN_POINT ( 'NONE',  ( 5.000000000000000000, 6.123233995736766282E-16, 0.000000000000000000 ) ) ;
#207 = COORDINATED_UNIVERSAL_TIME_OFFSET ( 1, 0, .AHEAD. ) ;
#208 = FACE_OUTER_BOUND ( 'NONE', #104, .T. ) ;
#209 = APPROVAL_ROLE ( '' ) ;
#210 = DIRECTION ( 'NONE',  ( 1.000000000000000000, 0.000000000000000000, -0.000000000000000000 ) ) ;
#211 = ADVANCED_FACE ( 'NONE', ( #267 ), #74, .T. ) ;
#212 = LOCAL_TIME ( 12, 0, 41.00000000000000000, #231 ) ;
#213 = CARTESIAN_POINT ( 'NONE',  ( 2.949999999999999734, 0.000000000000000000, 3.199999999999994404 ) ) ;
#214 = LINE ( 'NONE', #236, #182 ) ;
#215 = AXIS2_PLACEMENT_3D ( 'NONE', #151, #256, #32 ) ;
#216 = DIRECTION ( 'NONE',  ( -0.000000000000000000, -0.000000000000000000, -1.000000000000000000 ) ) ;
#217 = AXIS2_PLACEMENT_3D ( 'NONE', #266, #304, #160 ) ;
#218 = ORIENTED_EDGE ( 'NONE', *, *, #75, .F. ) ;
#219 = DIRECTION ( 'NONE',  ( 1.000000000000000000, 0.000000000000000000, 0.000000000000000000 ) ) ;
#220 = EDGE_LOOP ( 'NONE', ( #126, #290, #268, #4 ) ) ;
#221 =( GEOMETRIC_REPRESENTATION_CONTEXT ( 3 ) GLOBAL_UNCERTAINTY_ASSIGNED_CONTEXT ( ( #52 ) ) GLOBAL_UNIT_ASSIGNED_CONTEXT ( ( #29, #149, #253 ) ) REPRESENTATION_CONTEXT ( 'NONE', 'WORKASPACE' ) );
#222 = ADVANCED_BREP_SHAPE_REPRESENTATION ( '7510', ( #19, #165 ), #221 ) ;
#223 = ORIENTED_EDGE ( 'NONE', *, *, #298, .T. ) ;
#224 = APPLICATION_PROTOCOL_DEFINITION ( 'international standard', 'config_control_design', 1994, #55 ) ;
#225 = AXIS2_PLACEMENT_3D ( 'NONE', #68, #16, #193 ) ;
#226 = VERTEX_POINT ( 'NONE', #291 ) ;
#227 = EDGE_LOOP ( 'NONE', ( #121, #223, #144, #200 ) ) ;
#228 = APPROVAL_ROLE ( '' ) ;
#229 = PRODUCT ( '7510', '7510', '', ( #123 ) ) ;
#230 = DIRECTION ( 'NONE',  ( -0.000000000000000000, -0.000000000000000000, -1.000000000000000000 ) ) ;
#231 = COORDINATED_UNIVERSAL_TIME_OFFSET ( 1, 0, .AHEAD. ) ;
#232 = DIRECTION ( 'NONE',  ( 1.000000000000000000, 0.000000000000000000, 0.000000000000000000 ) ) ;
#233 = DATE_AND_TIME ( #259, #124 ) ;
#234 = DIRECTION ( 'NONE',  ( 0.000000000000000000, 0.000000000000000000, 1.000000000000000000 ) ) ;
#235 = COORDINATED_UNIVERSAL_TIME_OFFSET ( 1, 0, .AHEAD. ) ;
#236 = CARTESIAN_POINT ( 'NONE',  ( -2.750000000000000000, 0.000000000000000000, 103.0000000000000142 ) ) ;
#237 = CC_DESIGN_APPROVAL ( #295, ( #115 ) ) ;
#238 = CALENDAR_DATE ( 2022, 20, 6 ) ;
#239 = DIRECTION ( 'NONE',  ( 0.000000000000000000, 0.000000000000000000, -1.000000000000000000 ) ) ;
#240 = AXIS2_PLACEMENT_3D ( 'NONE', #107, #230, #11 ) ;
#241 = CIRCLE ( 'NONE', #36, 5.000000000000000000 ) ;
#242 = LOCAL_TIME ( 12, 0, 41.00000000000000000, #157 ) ;
#243 = CARTESIAN_POINT ( 'NONE',  ( 0.000000000000000000, 0.000000000000000000, 0.000000000000000000 ) ) ;
#244 = EDGE_CURVE ( 'NONE', #142, #226, #80, .T. ) ;
#245 = DESIGN_CONTEXT ( 'detailed design', #67, 'design' ) ;
#246 = FACE_OUTER_BOUND ( 'NONE', #96, .T. ) ;
#247 = ORIENTED_EDGE ( 'NONE', *, *, #280, .F. ) ;
#248 = VERTEX_POINT ( 'NONE', #79 ) ;
#249 = AXIS2_PLACEMENT_3D ( 'NONE', #141, #2, #289 ) ;
#250 = CC_DESIGN_PERSON_AND_ORGANIZATION_ASSIGNMENT ( #132, #303, ( #297 ) ) ;
#251 = SECURITY_CLASSIFICATION ( '', '', #183 ) ;
#252 = LINE ( 'NONE', #113, #50 ) ;
#253 =( NAMED_UNIT ( * ) SI_UNIT ( $, .STERADIAN. ) SOLID_ANGLE_UNIT ( ) );
#254 = VERTEX_POINT ( 'NONE', #23 ) ;
#255 = ADVANCED_FACE ( 'NONE', ( #169 ), #176, .F. ) ;
#256 = DIRECTION ( 'NONE',  ( 0.000000000000000000, 0.000000000000000000, 1.000000000000000000 ) ) ;
#257 = DATE_TIME_ROLE ( 'classification_date' ) ;
#258 = CARTESIAN_POINT ( 'NONE',  ( 0.000000000000000000, 0.000000000000000000, 103.0000000000000142 ) ) ;
#259 = CALENDAR_DATE ( 2022, 20, 6 ) ;
#260 = CARTESIAN_POINT ( 'NONE',  ( 0.000000000000000000, 0.000000000000000000, 3.000000000000000000 ) ) ;
#261 = DATE_AND_TIME ( #71, #242 ) ;
#262 = CARTESIAN_POINT ( 'NONE',  ( 0.000000000000000000, 0.000000000000000000, 3.000000000000000000 ) ) ;
#263 = DIRECTION ( 'NONE',  ( 1.000000000000000000, 0.000000000000000000, 0.000000000000000000 ) ) ;
#264 = PERSON_AND_ORGANIZATION ( #147, #170 ) ;
#265 = CARTESIAN_POINT ( 'NONE',  ( 0.000000000000000000, 0.000000000000000000, 3.199999999999994404 ) ) ;
#266 = CARTESIAN_POINT ( 'NONE',  ( 0.000000000000000000, 0.000000000000000000, 3.000000000000000000 ) ) ;
#267 = FACE_OUTER_BOUND ( 'NONE', #220, .T. ) ;
#268 = ORIENTED_EDGE ( 'NONE', *, *, #75, .T. ) ;
#269 = CARTESIAN_POINT ( 'NONE',  ( 2.750000000000000000, 3.367778697655221012E-16, 103.0000000000000142 ) ) ;
#270 = ADVANCED_FACE ( 'NONE', ( #26, #246 ), #22, .T. ) ;
#271 = VERTEX_POINT ( 'NONE', #173 ) ;
#272 = DIRECTION ( 'NONE',  ( 1.000000000000000000, 0.000000000000000000, 0.000000000000000000 ) ) ;
#273 = LOCAL_TIME ( 12, 0, 41.00000000000000000, #235 ) ;
#274 = ORIENTED_EDGE ( 'NONE', *, *, #70, .F. ) ;
#275 = CIRCLE ( 'NONE', #133, 2.750000000000000000 ) ;
#276 = LOCAL_TIME ( 12, 0, 41.00000000000000000, #108 ) ;
#277 = DIRECTION ( 'NONE',  ( -0.000000000000000000, -0.000000000000000000, -1.000000000000000000 ) ) ;
#278 = CARTESIAN_POINT ( 'NONE',  ( 0.000000000000000000, 0.000000000000000000, 0.000000000000000000 ) ) ;
#279 = ORIENTED_EDGE ( 'NONE', *, *, #8, .T. ) ;
#280 = EDGE_CURVE ( 'NONE', #180, #248, #105, .T. ) ;
#281 = DIRECTION ( 'NONE',  ( -0.000000000000000000, -0.000000000000000000, -1.000000000000000000 ) ) ;
#282 = AXIS2_PLACEMENT_3D ( 'NONE', #97, #91, #143 ) ;
#283 = CARTESIAN_POINT ( 'NONE',  ( -2.750000000000000000, 0.000000000000000000, 3.199999999999994404 ) ) ;
#284 = DIRECTION ( 'NONE',  ( 1.000000000000000000, 0.000000000000000000, -0.000000000000000000 ) ) ;
#285 = DIRECTION ( 'NONE',  ( -1.000000000000000000, 1.224646799147353207E-16, 0.000000000000000000 ) ) ;
#286 = PERSON_AND_ORGANIZATION ( #147, #170 ) ;
#287 = DIRECTION ( 'NONE',  ( 1.000000000000000000, 0.000000000000000000, 0.000000000000000000 ) ) ;
#288 = AXIS2_PLACEMENT_3D ( 'NONE', #140, #197, #272 ) ;
#289 = DIRECTION ( 'NONE',  ( 1.000000000000000000, 0.000000000000000000, 0.000000000000000000 ) ) ;
#290 = ORIENTED_EDGE ( 'NONE', *, *, #45, .F. ) ;
#291 = CARTESIAN_POINT ( 'NONE',  ( 2.750000000000000000, 3.367778697655221012E-16, 3.199999999999994404 ) ) ;
#292 = EDGE_CURVE ( 'NONE', #77, #5, #185, .T. ) ;
#293 = VERTEX_POINT ( 'NONE', #146 ) ;
#294 = EDGE_LOOP ( 'NONE', ( #150, #161 ) ) ;
#295 = APPROVAL ( #163, 'NEURÈENÝ' ) ;
#296 = CC_DESIGN_APPROVAL ( #92, ( #297 ) ) ;
#297 = PRODUCT_DEFINITION ( 'NEZNÁMÝ', '', #115, #245 ) ;
#298 = EDGE_CURVE ( 'NONE', #201, #5, #252, .T. ) ;
#299 = CARTESIAN_POINT ( 'NONE',  ( -5.000000000000000000, 0.000000000000000000, 3.000000000000000000 ) ) ;
#300 = CARTESIAN_POINT ( 'NONE',  ( 2.750000000000000000, 3.367778697655221012E-16, 103.0000000000000142 ) ) ;
#301 = APPROVAL_DATE_TIME ( #40, #92 ) ;
#302 = DIRECTION ( 'NONE',  ( 1.000000000000000000, 0.000000000000000000, 0.000000000000000000 ) ) ;
#303 = PERSON_AND_ORGANIZATION_ROLE ( 'creator' ) ;
#304 = DIRECTION ( 'NONE',  ( -0.000000000000000000, -0.000000000000000000, -1.000000000000000000 ) ) ;
#305 = DIRECTION ( 'NONE',  ( 0.000000000000000000, -1.000000000000000000, 0.000000000000000000 ) ) ;
#306 = CALENDAR_DATE ( 2022, 20, 6 ) ;
#307 = DIRECTION ( 'NONE',  ( -0.000000000000000000, -0.000000000000000000, -1.000000000000000000 ) ) ;
ENDSEC;
END-ISO-10303-21;
