ISO-10303-21;
HEADER;
FILE_DESCRIPTION (( 'STEP AP203' ),
    '1' );
FILE_NAME ('702f.STEP',
    '2022-06-20T09:55:51',
    ( '' ),
    ( '' ),
    'SwSTEP 2.0',
    'SolidWorks 2019',
    '' );
FILE_SCHEMA (( 'CONFIG_CONTROL_DESIGN' ));
ENDSEC;

DATA;
#1 = CIRCLE ( 'NONE', #194, 3.299999999999999822 ) ;
#2 = FACE_OUTER_BOUND ( 'NONE', #215, .T. ) ;
#3 = EDGE_CURVE ( 'NONE', #47, #304, #87, .T. ) ;
#4 = DIRECTION ( 'NONE',  ( 1.000000000000000000, 0.000000000000000000, 0.000000000000000000 ) ) ;
#5 = CIRCLE ( 'NONE', #265, 0.1999999999999996503 ) ;
#6 = COORDINATED_UNIVERSAL_TIME_OFFSET ( 1, 0, .AHEAD. ) ;
#7 = CARTESIAN_POINT ( 'NONE',  ( 0.000000000000000000, 0.000000000000000000, 5.000000000000000000 ) ) ;
#8 = ADVANCED_FACE ( 'NONE', ( #150, #148 ), #52, .T. ) ;
#9 = DIRECTION ( 'NONE',  ( 1.000000000000000000, 0.000000000000000000, -0.000000000000000000 ) ) ;
#10 = DIRECTION ( 'NONE',  ( 0.000000000000000000, 0.000000000000000000, -1.000000000000000000 ) ) ;
#11 = CARTESIAN_POINT ( 'NONE',  ( -3.100000000000000089, 0.000000000000000000, 5.199999999999982414 ) ) ;
#12 = PERSON_AND_ORGANIZATION_ROLE ( 'creator' ) ;
#13 = CARTESIAN_POINT ( 'NONE',  ( 6.000000000000000888, 7.347880794884120722E-16, 5.000000000000000000 ) ) ;
#14 = CARTESIAN_POINT ( 'NONE',  ( 0.000000000000000000, 0.000000000000000000, 0.000000000000000000 ) ) ;
#15 = LINE ( 'NONE', #13, #228 ) ;
#16 = MANIFOLD_SOLID_BREP ( 'Zaoblit1', #227 ) ;
#17 = APPROVAL_STATUS ( 'not_yet_approved' ) ;
#18 = CYLINDRICAL_SURFACE ( 'NONE', #124, 6.000000000000000888 ) ;
#19 = EDGE_LOOP ( 'NONE', ( #71, #167, #168, #286 ) ) ;
#20 = VERTEX_POINT ( 'NONE', #102 ) ;
#21 = DESIGN_CONTEXT ( 'detailed design', #270, 'design' ) ;
#22 = ORIENTED_EDGE ( 'NONE', *, *, #48, .F. ) ;
#23 = APPROVAL ( #104, 'NEURÈENÝ' ) ;
#24 = ORIENTED_EDGE ( 'NONE', *, *, #115, .T. ) ;
#25 = CC_DESIGN_DATE_AND_TIME_ASSIGNMENT ( #86, #82, ( #296 ) ) ;
#26 = ORIENTED_EDGE ( 'NONE', *, *, #176, .T. ) ;
#27 = APPROVAL_PERSON_ORGANIZATION ( #121, #23, #153 ) ;
#28 = DIRECTION ( 'NONE',  ( 0.000000000000000000, 0.000000000000000000, 1.000000000000000000 ) ) ;
#29 = EDGE_CURVE ( 'NONE', #302, #46, #275, .T. ) ;
#30 = FACE_OUTER_BOUND ( 'NONE', #88, .T. ) ;
#31 = DIRECTION ( 'NONE',  ( -1.000000000000000000, 0.000000000000000000, 0.000000000000000000 ) ) ;
#32 = DIRECTION ( 'NONE',  ( 1.000000000000000000, 0.000000000000000000, 0.000000000000000000 ) ) ;
#33 =( GEOMETRIC_REPRESENTATION_CONTEXT ( 3 ) GLOBAL_UNCERTAINTY_ASSIGNED_CONTEXT ( ( #193 ) ) GLOBAL_UNIT_ASSIGNED_CONTEXT ( ( #257, #254, #232 ) ) REPRESENTATION_CONTEXT ( 'NONE', 'WORKASPACE' ) );
#34 = PERSON_AND_ORGANIZATION ( #208, #89 ) ;
#35 = FACE_OUTER_BOUND ( 'NONE', #43, .T. ) ;
#36 = PERSON_AND_ORGANIZATION ( #208, #89 ) ;
#37 = DIRECTION ( 'NONE',  ( -1.000000000000000000, 0.000000000000000000, 0.000000000000000000 ) ) ;
#38 = CIRCLE ( 'NONE', #295, 3.100000000000000089 ) ;
#39 = DIRECTION ( 'NONE',  ( -1.000000000000000000, 0.000000000000000000, 0.000000000000000000 ) ) ;
#40 = AXIS2_PLACEMENT_3D ( 'NONE', #14, #85, #60 ) ;
#41 = COORDINATED_UNIVERSAL_TIME_OFFSET ( 1, 0, .AHEAD. ) ;
#42 = DIRECTION ( 'NONE',  ( 1.000000000000000000, 0.000000000000000000, 0.000000000000000000 ) ) ;
#43 = EDGE_LOOP ( 'NONE', ( #114, #170 ) ) ;
#44 = AXIS2_PLACEMENT_3D ( 'NONE', #7, #269, #144 ) ;
#45 = APPROVAL ( #127, 'NEURÈENÝ' ) ;
#46 = VERTEX_POINT ( 'NONE', #220 ) ;
#47 = VERTEX_POINT ( 'NONE', #55 ) ;
#48 = EDGE_CURVE ( 'NONE', #165, #282, #1, .T. ) ;
#49 = APPLICATION_CONTEXT ( 'configuration controlled 3d designs of mechanical parts and assemblies' ) ;
#50 = AXIS2_PLACEMENT_3D ( 'NONE', #226, #173, #9 ) ;
#51 = AXIS2_PLACEMENT_3D ( 'NONE', #152, #231, #131 ) ;
#52 = PLANE ( 'NONE',  #44 ) ;
#53 = CARTESIAN_POINT ( 'NONE',  ( 0.000000000000000000, 0.000000000000000000, 5.199999999999982414 ) ) ;
#54 = COORDINATED_UNIVERSAL_TIME_OFFSET ( 1, 0, .AHEAD. ) ;
#55 = CARTESIAN_POINT ( 'NONE',  ( 3.100000000000000089, 3.796405077356794918E-16, 5.199999999999982414 ) ) ;
#56 = CARTESIAN_POINT ( 'NONE',  ( 3.100000000000000089, 3.796405077356794918E-16, 320.0000000000000000 ) ) ;
#57 = DIRECTION ( 'NONE',  ( -0.000000000000000000, -0.000000000000000000, -1.000000000000000000 ) ) ;
#58 = VECTOR ( 'NONE', #134, 1000.000000000000000 ) ;
#59 = CALENDAR_DATE ( 2022, 20, 6 ) ;
#60 = DIRECTION ( 'NONE',  ( 1.000000000000000000, 0.000000000000000000, 0.000000000000000000 ) ) ;
#61 = AXIS2_PLACEMENT_3D ( 'NONE', #201, #28, #169 ) ;
#62 = ADVANCED_FACE ( 'NONE', ( #268 ), #240, .T. ) ;
#63 = DIRECTION ( 'NONE',  ( -0.000000000000000000, -0.000000000000000000, -1.000000000000000000 ) ) ;
#64 = CARTESIAN_POINT ( 'NONE',  ( 0.000000000000000000, 0.000000000000000000, 320.0000000000000000 ) ) ;
#65 = EDGE_CURVE ( 'NONE', #20, #304, #241, .T. ) ;
#66 = EDGE_CURVE ( 'NONE', #20, #285, #38, .T. ) ;
#67 = CALENDAR_DATE ( 2022, 20, 6 ) ;
#68 = ORIENTED_EDGE ( 'NONE', *, *, #65, .F. ) ;
#69 = ORIENTED_EDGE ( 'NONE', *, *, #3, .T. ) ;
#70 = ORIENTED_EDGE ( 'NONE', *, *, #94, .F. ) ;
#71 = ORIENTED_EDGE ( 'NONE', *, *, #174, .F. ) ;
#72 = ADVANCED_FACE ( 'NONE', ( #2 ), #182, .F. ) ;
#73 = AXIS2_PLACEMENT_3D ( 'NONE', #290, #247, #107 ) ;
#74 = ORIENTED_EDGE ( 'NONE', *, *, #29, .F. ) ;
#75 = DIRECTION ( 'NONE',  ( 0.000000000000000000, 0.000000000000000000, 1.000000000000000000 ) ) ;
#76 = VERTEX_POINT ( 'NONE', #307 ) ;
#77 = DATE_AND_TIME ( #202, #235 ) ;
#78 = LOCAL_TIME ( 11, 55, 51.00000000000000000, #41 ) ;
#79 = COORDINATED_UNIVERSAL_TIME_OFFSET ( 1, 0, .AHEAD. ) ;
#80 = DIRECTION ( 'NONE',  ( 1.000000000000000000, 0.000000000000000000, 0.000000000000000000 ) ) ;
#81 = PERSON_AND_ORGANIZATION_ROLE ( 'classification_officer' ) ;
#82 = DATE_TIME_ROLE ( 'classification_date' ) ;
#83 = DIRECTION ( 'NONE',  ( -1.000000000000000000, 0.000000000000000000, 0.000000000000000000 ) ) ;
#84 = EDGE_CURVE ( 'NONE', #304, #47, #98, .T. ) ;
#85 = DIRECTION ( 'NONE',  ( 0.000000000000000000, 0.000000000000000000, 1.000000000000000000 ) ) ;
#86 = DATE_AND_TIME ( #245, #110 ) ;
#87 = CIRCLE ( 'NONE', #298, 3.100000000000000089 ) ;
#88 = EDGE_LOOP ( 'NONE', ( #95, #190, #117, #213 ) ) ;
#89 = ORGANIZATION ( 'NEURÈENÝ', 'NEURÈENÝ', '' ) ;
#90 = ORIENTED_EDGE ( 'NONE', *, *, #66, .T. ) ;
#91 = EDGE_LOOP ( 'NONE', ( #306, #233, #24, #192 ) ) ;
#92 = ORIENTED_EDGE ( 'NONE', *, *, #303, .F. ) ;
#93 = AXIS2_PLACEMENT_3D ( 'NONE', #64, #160, #108 ) ;
#94 = EDGE_CURVE ( 'NONE', #304, #165, #189, .T. ) ;
#95 = ORIENTED_EDGE ( 'NONE', *, *, #84, .F. ) ;
#96 = PRODUCT_RELATED_PRODUCT_CATEGORY ( 'detail', '', ( #103 ) ) ;
#97 = CARTESIAN_POINT ( 'NONE',  ( -3.299999999999999822, 4.041334437186265510E-16, 5.199999999999982414 ) ) ;
#98 = CIRCLE ( 'NONE', #283, 3.100000000000000089 ) ;
#99 = CARTESIAN_POINT ( 'NONE',  ( 0.000000000000000000, 0.000000000000000000, 5.199999999999982414 ) ) ;
#100 = ADVANCED_FACE ( 'NONE', ( #35 ), #128, .F. ) ;
#101 = ORIENTED_EDGE ( 'NONE', *, *, #284, .T. ) ;
#102 = CARTESIAN_POINT ( 'NONE',  ( -3.100000000000000089, 0.000000000000000000, 320.0000000000000000 ) ) ;
#103 = PRODUCT ( '702f', '702f', '', ( #179 ) ) ;
#104 = APPROVAL_STATUS ( 'not_yet_approved' ) ;
#105 = DIRECTION ( 'NONE',  ( 0.000000000000000000, 0.000000000000000000, 1.000000000000000000 ) ) ;
#106 = ADVANCED_FACE ( 'NONE', ( #30 ), #158, .F. ) ;
#107 = DIRECTION ( 'NONE',  ( 1.000000000000000000, 0.000000000000000000, 0.000000000000000000 ) ) ;
#108 = DIRECTION ( 'NONE',  ( 1.000000000000000000, 0.000000000000000000, 0.000000000000000000 ) ) ;
#109 = DIRECTION ( 'NONE',  ( -0.000000000000000000, -0.000000000000000000, -1.000000000000000000 ) ) ;
#110 = LOCAL_TIME ( 11, 55, 51.00000000000000000, #221 ) ;
#111 = ORIENTED_EDGE ( 'NONE', *, *, #174, .T. ) ;
#112 = ADVANCED_FACE ( 'NONE', ( #288 ), #292, .T. ) ;
#113 = VERTEX_POINT ( 'NONE', #122 ) ;
#114 = ORIENTED_EDGE ( 'NONE', *, *, #299, .F. ) ;
#115 = EDGE_CURVE ( 'NONE', #46, #113, #222, .T. ) ;
#116 = EDGE_CURVE ( 'NONE', #76, #113, #301, .T. ) ;
#117 = ORIENTED_EDGE ( 'NONE', *, *, #284, .F. ) ;
#118 = PRODUCT_DEFINITION_FORMATION_WITH_SPECIFIED_SOURCE ( 'LIBOVOLNÝ', '', #103, .NOT_KNOWN. ) ;
#119 = CARTESIAN_POINT ( 'NONE',  ( 0.000000000000000000, 0.000000000000000000, 5.000000000000000000 ) ) ;
#120 = DIRECTION ( 'NONE',  ( -0.000000000000000000, -0.000000000000000000, -1.000000000000000000 ) ) ;
#121 = PERSON_AND_ORGANIZATION ( #208, #89 ) ;
#122 = CARTESIAN_POINT ( 'NONE',  ( -6.000000000000000888, 0.000000000000000000, 0.000000000000000000 ) ) ;
#123 = APPROVAL ( #17, 'NEURÈENÝ' ) ;
#124 = AXIS2_PLACEMENT_3D ( 'NONE', #211, #109, #39 ) ;
#125 = APPLICATION_PROTOCOL_DEFINITION ( 'international standard', 'config_control_design', 1994, #270 ) ;
#126 = DIRECTION ( 'NONE',  ( 0.000000000000000000, 0.000000000000000000, 1.000000000000000000 ) ) ;
#127 = APPROVAL_STATUS ( 'not_yet_approved' ) ;
#128 = PLANE ( 'NONE',  #50 ) ;
#129 = EDGE_CURVE ( 'NONE', #46, #302, #277, .T. ) ;
#130 = APPROVAL_ROLE ( '' ) ;
#131 = DIRECTION ( 'NONE',  ( 1.000000000000000000, 0.000000000000000000, 0.000000000000000000 ) ) ;
#132 = CC_DESIGN_PERSON_AND_ORGANIZATION_ASSIGNMENT ( #294, #81, ( #296 ) ) ;
#133 = PERSON_AND_ORGANIZATION_ROLE ( 'design_supplier' ) ;
#134 = DIRECTION ( 'NONE',  ( -0.000000000000000000, -0.000000000000000000, -1.000000000000000000 ) ) ;
#135 = LINE ( 'NONE', #154, #271 ) ;
#136 = CC_DESIGN_DATE_AND_TIME_ASSIGNMENT ( #273, #225, ( #155 ) ) ;
#137 = FACE_OUTER_BOUND ( 'NONE', #91, .T. ) ;
#138 = AXIS2_PLACEMENT_3D ( 'NONE', #119, #246, #32 ) ;
#139 = ORIENTED_EDGE ( 'NONE', *, *, #3, .F. ) ;
#140 = EDGE_LOOP ( 'NONE', ( #236, #234 ) ) ;
#141 = APPROVAL_PERSON_ORGANIZATION ( #204, #45, #130 ) ;
#142 = EDGE_LOOP ( 'NONE', ( #90, #166 ) ) ;
#143 = ORIENTED_EDGE ( 'NONE', *, *, #48, .T. ) ;
#144 = DIRECTION ( 'NONE',  ( 1.000000000000000000, 0.000000000000000000, -0.000000000000000000 ) ) ;
#145 = CIRCLE ( 'NONE', #305, 3.299999999999999822 ) ;
#146 = DIRECTION ( 'NONE',  ( 1.000000000000000000, 0.000000000000000000, 0.000000000000000000 ) ) ;
#147 = DIRECTION ( 'NONE',  ( 1.000000000000000000, 0.000000000000000000, 0.000000000000000000 ) ) ;
#148 = FACE_OUTER_BOUND ( 'NONE', #140, .T. ) ;
#149 = LOCAL_TIME ( 11, 55, 51.00000000000000000, #79 ) ;
#150 = FACE_BOUND ( 'NONE', #300, .T. ) ;
#151 = PERSON_AND_ORGANIZATION_ROLE ( 'design_owner' ) ;
#152 = CARTESIAN_POINT ( 'NONE',  ( 0.000000000000000000, 0.000000000000000000, 5.000000000000000000 ) ) ;
#153 = APPROVAL_ROLE ( '' ) ;
#154 = CARTESIAN_POINT ( 'NONE',  ( 3.100000000000000089, 3.796405077356794918E-16, 320.0000000000000000 ) ) ;
#155 = PRODUCT_DEFINITION ( 'NEZNÁMÝ', '', #118, #21 ) ;
#156 = PERSON_AND_ORGANIZATION ( #208, #89 ) ;
#157 = CIRCLE ( 'NONE', #93, 3.100000000000000089 ) ;
#158 = TOROIDAL_SURFACE ( 'NONE', #181, 3.299999999999999822, 0.2000000000000000111 ) ;
#159 = CARTESIAN_POINT ( 'NONE',  ( 0.000000000000000000, 0.000000000000000000, 320.0000000000000000 ) ) ;
#160 = DIRECTION ( 'NONE',  ( 0.000000000000000000, 0.000000000000000000, 1.000000000000000000 ) ) ;
#161 = APPROVAL_ROLE ( '' ) ;
#162 = SHAPE_DEFINITION_REPRESENTATION ( #253, #244 ) ;
#163 = AXIS2_PLACEMENT_3D ( 'NONE', #184, #177, #80 ) ;
#164 = CARTESIAN_POINT ( 'NONE',  ( 0.000000000000000000, 0.000000000000000000, 5.000000000000000000 ) ) ;
#165 = VERTEX_POINT ( 'NONE', #297 ) ;
#166 = ORIENTED_EDGE ( 'NONE', *, *, #303, .T. ) ;
#167 = ORIENTED_EDGE ( 'NONE', *, *, #66, .F. ) ;
#168 = ORIENTED_EDGE ( 'NONE', *, *, #65, .T. ) ;
#169 = DIRECTION ( 'NONE',  ( 1.000000000000000000, 0.000000000000000000, -0.000000000000000000 ) ) ;
#170 = ORIENTED_EDGE ( 'NONE', *, *, #116, .F. ) ;
#171 = CIRCLE ( 'NONE', #163, 6.000000000000000888 ) ;
#172 = DIRECTION ( 'NONE',  ( 1.000000000000000000, 0.000000000000000000, 0.000000000000000000 ) ) ;
#173 = DIRECTION ( 'NONE',  ( 0.000000000000000000, 0.000000000000000000, 1.000000000000000000 ) ) ;
#174 = EDGE_CURVE ( 'NONE', #285, #47, #135, .T. ) ;
#175 = EDGE_LOOP ( 'NONE', ( #92, #111, #69, #68 ) ) ;
#176 = EDGE_CURVE ( 'NONE', #302, #76, #15, .T. ) ;
#177 = DIRECTION ( 'NONE',  ( 0.000000000000000000, 0.000000000000000000, 1.000000000000000000 ) ) ;
#178 = APPROVAL_PERSON_ORGANIZATION ( #156, #123, #161 ) ;
#179 = MECHANICAL_CONTEXT ( 'NONE', #49, 'mechanical' ) ;
#180 = CYLINDRICAL_SURFACE ( 'NONE', #293, 6.000000000000000888 ) ;
#181 = AXIS2_PLACEMENT_3D ( 'NONE', #53, #105, #147 ) ;
#182 = TOROIDAL_SURFACE ( 'NONE', #207, 3.299999999999999822, 0.2000000000000000111 ) ;
#183 = DIRECTION ( 'NONE',  ( -0.000000000000000000, -0.000000000000000000, -1.000000000000000000 ) ) ;
#184 = CARTESIAN_POINT ( 'NONE',  ( 0.000000000000000000, 0.000000000000000000, 0.000000000000000000 ) ) ;
#185 = DIRECTION ( 'NONE',  ( 0.000000000000000000, -1.000000000000000000, 0.000000000000000000 ) ) ;
#186 = ORIENTED_EDGE ( 'NONE', *, *, #116, .T. ) ;
#187 = ORIENTED_EDGE ( 'NONE', *, *, #196, .T. ) ;
#188 = ADVANCED_FACE ( 'NONE', ( #206 ), #180, .T. ) ;
#189 = CIRCLE ( 'NONE', #229, 0.2000000000000000944 ) ;
#190 = ORIENTED_EDGE ( 'NONE', *, *, #94, .T. ) ;
#191 = CC_DESIGN_APPROVAL ( #123, ( #296 ) ) ;
#192 = ORIENTED_EDGE ( 'NONE', *, *, #299, .T. ) ;
#193 = UNCERTAINTY_MEASURE_WITH_UNIT (LENGTH_MEASURE( 1.000000000000000082E-05 ), #257, 'distance_accuracy_value', 'NONE');
#194 = AXIS2_PLACEMENT_3D ( 'NONE', #287, #120, #4 ) ;
#195 = DIRECTION ( 'NONE',  ( -1.000000000000000000, 1.224646799147353207E-16, 0.000000000000000000 ) ) ;
#196 = EDGE_CURVE ( 'NONE', #47, #282, #5, .T. ) ;
#197 = CARTESIAN_POINT ( 'NONE',  ( 0.000000000000000000, 0.000000000000000000, 5.199999999999982414 ) ) ;
#198 = LOCAL_TIME ( 11, 55, 51.00000000000000000, #6 ) ;
#199 = PERSON_AND_ORGANIZATION ( #208, #89 ) ;
#200 = DIRECTION ( 'NONE',  ( 1.224646799147353207E-16, 1.000000000000000000, -0.000000000000000000 ) ) ;
#201 = CARTESIAN_POINT ( 'NONE',  ( 0.000000000000000000, 0.000000000000000000, 320.0000000000000000 ) ) ;
#202 = CALENDAR_DATE ( 2022, 20, 6 ) ;
#203 = DIRECTION ( 'NONE',  ( 0.000000000000000000, 0.000000000000000000, 1.000000000000000000 ) ) ;
#204 = PERSON_AND_ORGANIZATION ( #208, #89 ) ;
#205 = SECURITY_CLASSIFICATION_LEVEL ( 'unclassified' ) ;
#206 = FACE_OUTER_BOUND ( 'NONE', #216, .T. ) ;
#207 = AXIS2_PLACEMENT_3D ( 'NONE', #197, #75, #224 ) ;
#208 = PERSON ( 'NEURÈENÝ', 'NEURÈENÝ', 'NEURÈENÝ', ('NEURÈENÝ'), ('NEURÈENÝ'), ('NEURÈENÝ') ) ;
#209 = CARTESIAN_POINT ( 'NONE',  ( 3.299999999999999822, 0.000000000000000000, 4.999999999999991118 ) ) ;
#210 = CC_DESIGN_PERSON_AND_ORGANIZATION_ASSIGNMENT ( #34, #151, ( #103 ) ) ;
#211 = CARTESIAN_POINT ( 'NONE',  ( 0.000000000000000000, 0.000000000000000000, 5.000000000000000000 ) ) ;
#212 = DATE_AND_TIME ( #67, #78 ) ;
#213 = ORIENTED_EDGE ( 'NONE', *, *, #196, .F. ) ;
#214 = CC_DESIGN_APPROVAL ( #45, ( #155 ) ) ;
#215 = EDGE_LOOP ( 'NONE', ( #70, #139, #187, #22 ) ) ;
#216 = EDGE_LOOP ( 'NONE', ( #74, #26, #186, #237 ) ) ;
#217 = CC_DESIGN_APPROVAL ( #23, ( #118 ) ) ;
#218 = ADVANCED_FACE ( 'NONE', ( #281 ), #274, .T. ) ;
#219 = CARTESIAN_POINT ( 'NONE',  ( -3.100000000000000089, 0.000000000000000000, 320.0000000000000000 ) ) ;
#220 = CARTESIAN_POINT ( 'NONE',  ( -6.000000000000000888, 0.000000000000000000, 5.000000000000000000 ) ) ;
#221 = COORDINATED_UNIVERSAL_TIME_OFFSET ( 1, 0, .AHEAD. ) ;
#222 = LINE ( 'NONE', #250, #58 ) ;
#223 = CALENDAR_DATE ( 2022, 20, 6 ) ;
#224 = DIRECTION ( 'NONE',  ( 1.000000000000000000, 0.000000000000000000, 0.000000000000000000 ) ) ;
#225 = DATE_TIME_ROLE ( 'creation_date' ) ;
#226 = CARTESIAN_POINT ( 'NONE',  ( 0.000000000000000000, 0.000000000000000000, 0.000000000000000000 ) ) ;
#227 = CLOSED_SHELL ( 'NONE', ( #106, #112, #188, #239, #8, #100, #218, #62, #72 ) ) ;
#228 = VECTOR ( 'NONE', #256, 1000.000000000000000 ) ;
#229 = AXIS2_PLACEMENT_3D ( 'NONE', #97, #200, #195 ) ;
#230 = APPROVAL_DATE_TIME ( #212, #123 ) ;
#231 = DIRECTION ( 'NONE',  ( 0.000000000000000000, 0.000000000000000000, 1.000000000000000000 ) ) ;
#232 =( NAMED_UNIT ( * ) SI_UNIT ( $, .STERADIAN. ) SOLID_ANGLE_UNIT ( ) );
#233 = ORIENTED_EDGE ( 'NONE', *, *, #129, .F. ) ;
#234 = ORIENTED_EDGE ( 'NONE', *, *, #29, .T. ) ;
#235 = LOCAL_TIME ( 11, 55, 51.00000000000000000, #54 ) ;
#236 = ORIENTED_EDGE ( 'NONE', *, *, #129, .T. ) ;
#237 = ORIENTED_EDGE ( 'NONE', *, *, #115, .F. ) ;
#238 = APPLICATION_PROTOCOL_DEFINITION ( 'international standard', 'config_control_design', 1994, #49 ) ;
#239 = ADVANCED_FACE ( 'NONE', ( #137 ), #18, .T. ) ;
#240 = PLANE ( 'NONE',  #61 ) ;
#241 = LINE ( 'NONE', #219, #262 ) ;
#242 = DIRECTION ( 'NONE',  ( -0.000000000000000000, -0.000000000000000000, -1.000000000000000000 ) ) ;
#243 = CC_DESIGN_PERSON_AND_ORGANIZATION_ASSIGNMENT ( #199, #267, ( #155 ) ) ;
#244 = ADVANCED_BREP_SHAPE_REPRESENTATION ( '702f', ( #16, #73 ), #33 ) ;
#245 = CALENDAR_DATE ( 2022, 20, 6 ) ;
#246 = DIRECTION ( 'NONE',  ( 0.000000000000000000, 0.000000000000000000, 1.000000000000000000 ) ) ;
#247 = DIRECTION ( 'NONE',  ( 0.000000000000000000, 0.000000000000000000, 1.000000000000000000 ) ) ;
#248 = CARTESIAN_POINT ( 'NONE',  ( 0.000000000000000000, 0.000000000000000000, 320.0000000000000000 ) ) ;
#249 = APPROVAL_DATE_TIME ( #251, #45 ) ;
#250 = CARTESIAN_POINT ( 'NONE',  ( -6.000000000000000888, 0.000000000000000000, 5.000000000000000000 ) ) ;
#251 = DATE_AND_TIME ( #223, #149 ) ;
#252 = CC_DESIGN_SECURITY_CLASSIFICATION ( #296, ( #118 ) ) ;
#253 = PRODUCT_DEFINITION_SHAPE ( 'NONE', 'NONE',  #155 ) ;
#254 =( NAMED_UNIT ( * ) PLANE_ANGLE_UNIT ( ) SI_UNIT ( $, .RADIAN. ) );
#255 = CC_DESIGN_PERSON_AND_ORGANIZATION_ASSIGNMENT ( #276, #133, ( #118 ) ) ;
#256 = DIRECTION ( 'NONE',  ( -0.000000000000000000, -0.000000000000000000, -1.000000000000000000 ) ) ;
#257 =( LENGTH_UNIT ( ) NAMED_UNIT ( * ) SI_UNIT ( .MILLI., .METRE. ) );
#258 = DIRECTION ( 'NONE',  ( -0.000000000000000000, -0.000000000000000000, -1.000000000000000000 ) ) ;
#259 = CARTESIAN_POINT ( 'NONE',  ( 0.000000000000000000, 0.000000000000000000, 5.000000000000000000 ) ) ;
#260 = AXIS2_PLACEMENT_3D ( 'NONE', #263, #242, #31 ) ;
#261 = DIRECTION ( 'NONE',  ( -0.000000000000000000, -0.000000000000000000, -1.000000000000000000 ) ) ;
#262 = VECTOR ( 'NONE', #57, 1000.000000000000000 ) ;
#263 = CARTESIAN_POINT ( 'NONE',  ( 0.000000000000000000, 0.000000000000000000, 320.0000000000000000 ) ) ;
#264 = CARTESIAN_POINT ( 'NONE',  ( 0.000000000000000000, 0.000000000000000000, 5.199999999999982414 ) ) ;
#265 = AXIS2_PLACEMENT_3D ( 'NONE', #280, #185, #10 ) ;
#266 = DIRECTION ( 'NONE',  ( 0.000000000000000000, 0.000000000000000000, 1.000000000000000000 ) ) ;
#267 = PERSON_AND_ORGANIZATION_ROLE ( 'creator' ) ;
#268 = FACE_OUTER_BOUND ( 'NONE', #142, .T. ) ;
#269 = DIRECTION ( 'NONE',  ( 0.000000000000000000, 0.000000000000000000, 1.000000000000000000 ) ) ;
#270 = APPLICATION_CONTEXT ( 'configuration controlled 3d designs of mechanical parts and assemblies' ) ;
#271 = VECTOR ( 'NONE', #63, 1000.000000000000000 ) ;
#272 = APPROVAL_DATE_TIME ( #77, #23 ) ;
#273 = DATE_AND_TIME ( #59, #198 ) ;
#274 = CYLINDRICAL_SURFACE ( 'NONE', #289, 3.100000000000000089 ) ;
#275 = CIRCLE ( 'NONE', #138, 6.000000000000000888 ) ;
#276 = PERSON_AND_ORGANIZATION ( #208, #89 ) ;
#277 = CIRCLE ( 'NONE', #51, 6.000000000000000888 ) ;
#278 = CARTESIAN_POINT ( 'NONE',  ( 6.000000000000000888, 7.347880794884120722E-16, 5.000000000000000000 ) ) ;
#279 = CC_DESIGN_PERSON_AND_ORGANIZATION_ASSIGNMENT ( #36, #12, ( #118 ) ) ;
#280 = CARTESIAN_POINT ( 'NONE',  ( 3.299999999999999822, 0.000000000000000000, 5.199999999999982414 ) ) ;
#281 = FACE_OUTER_BOUND ( 'NONE', #19, .T. ) ;
#282 = VERTEX_POINT ( 'NONE', #209 ) ;
#283 = AXIS2_PLACEMENT_3D ( 'NONE', #99, #266, #291 ) ;
#284 = EDGE_CURVE ( 'NONE', #282, #165, #145, .T. ) ;
#285 = VERTEX_POINT ( 'NONE', #56 ) ;
#286 = ORIENTED_EDGE ( 'NONE', *, *, #84, .T. ) ;
#287 = CARTESIAN_POINT ( 'NONE',  ( 0.000000000000000000, 0.000000000000000000, 5.000000000000000000 ) ) ;
#288 = FACE_OUTER_BOUND ( 'NONE', #175, .T. ) ;
#289 = AXIS2_PLACEMENT_3D ( 'NONE', #159, #258, #37 ) ;
#290 = CARTESIAN_POINT ( 'NONE',  ( 0.000000000000000000, 0.000000000000000000, 0.000000000000000000 ) ) ;
#291 = DIRECTION ( 'NONE',  ( 1.000000000000000000, 0.000000000000000000, 0.000000000000000000 ) ) ;
#292 = CYLINDRICAL_SURFACE ( 'NONE', #260, 3.100000000000000089 ) ;
#293 = AXIS2_PLACEMENT_3D ( 'NONE', #259, #183, #83 ) ;
#294 = PERSON_AND_ORGANIZATION ( #208, #89 ) ;
#295 = AXIS2_PLACEMENT_3D ( 'NONE', #248, #126, #146 ) ;
#296 = SECURITY_CLASSIFICATION ( '', '', #205 ) ;
#297 = CARTESIAN_POINT ( 'NONE',  ( -3.299999999999999822, 4.041334437186265510E-16, 4.999999999999991118 ) ) ;
#298 = AXIS2_PLACEMENT_3D ( 'NONE', #264, #203, #172 ) ;
#299 = EDGE_CURVE ( 'NONE', #113, #76, #171, .T. ) ;
#300 = EDGE_LOOP ( 'NONE', ( #101, #143 ) ) ;
#301 = CIRCLE ( 'NONE', #40, 6.000000000000000888 ) ;
#302 = VERTEX_POINT ( 'NONE', #278 ) ;
#303 = EDGE_CURVE ( 'NONE', #285, #20, #157, .T. ) ;
#304 = VERTEX_POINT ( 'NONE', #11 ) ;
#305 = AXIS2_PLACEMENT_3D ( 'NONE', #164, #261, #42 ) ;
#306 = ORIENTED_EDGE ( 'NONE', *, *, #176, .F. ) ;
#307 = CARTESIAN_POINT ( 'NONE',  ( 6.000000000000000888, 7.347880794884120722E-16, 0.000000000000000000 ) ) ;
ENDSEC;
END-ISO-10303-21;
