ISO-10303-21;
HEADER;
FILE_DESCRIPTION (( 'STEP AP203' ),
    '1' );
FILE_NAME ('f8c7.STEP',
    '2022-06-20T09:44:38',
    ( '' ),
    ( '' ),
    'SwSTEP 2.0',
    'SolidWorks 2019',
    '' );
FILE_SCHEMA (( 'CONFIG_CONTROL_DESIGN' ));
ENDSEC;

DATA;
#1 =( GEOMETRIC_REPRESENTATION_CONTEXT ( 3 ) GLOBAL_UNCERTAINTY_ASSIGNED_CONTEXT ( ( #37 ) ) GLOBAL_UNIT_ASSIGNED_CONTEXT ( ( #280, #255, #307 ) ) REPRESENTATION_CONTEXT ( 'NONE', 'WORKASPACE' ) );
#2 = DIRECTION ( 'NONE',  ( 1.000000000000000000, 0.000000000000000000, -0.000000000000000000 ) ) ;
#3 = PERSON_AND_ORGANIZATION ( #29, #228 ) ;
#4 = DIRECTION ( 'NONE',  ( -1.000000000000000000, 0.000000000000000000, 0.000000000000000000 ) ) ;
#5 = DIRECTION ( 'NONE',  ( 0.000000000000000000, -1.000000000000000000, 0.000000000000000000 ) ) ;
#6 = AXIS2_PLACEMENT_3D ( 'NONE', #52, #148, #142 ) ;
#7 = DIRECTION ( 'NONE',  ( 0.000000000000000000, 0.000000000000000000, -1.000000000000000000 ) ) ;
#8 = CARTESIAN_POINT ( 'NONE',  ( -4.250000000000000000, 0.000000000000000000, 5.199999999999982414 ) ) ;
#9 = CC_DESIGN_PERSON_AND_ORGANIZATION_ASSIGNMENT ( #3, #85, ( #15 ) ) ;
#10 = CARTESIAN_POINT ( 'NONE',  ( 0.000000000000000000, 0.000000000000000000, 405.0000000000000000 ) ) ;
#11 = AXIS2_PLACEMENT_3D ( 'NONE', #290, #84, #200 ) ;
#12 = DIRECTION ( 'NONE',  ( 1.000000000000000000, 0.000000000000000000, 0.000000000000000000 ) ) ;
#13 = ORIENTED_EDGE ( 'NONE', *, *, #139, .F. ) ;
#14 = AXIS2_PLACEMENT_3D ( 'NONE', #156, #245, #42 ) ;
#15 = SECURITY_CLASSIFICATION ( '', '', #34 ) ;
#16 = LINE ( 'NONE', #40, #56 ) ;
#17 = CARTESIAN_POINT ( 'NONE',  ( 0.000000000000000000, 0.000000000000000000, 0.000000000000000000 ) ) ;
#18 = EDGE_CURVE ( 'NONE', #180, #186, #41, .T. ) ;
#19 = EDGE_LOOP ( 'NONE', ( #271, #58, #59, #104 ) ) ;
#20 = PERSON_AND_ORGANIZATION ( #29, #228 ) ;
#21 = AXIS2_PLACEMENT_3D ( 'NONE', #261, #193, #260 ) ;
#22 = MANIFOLD_SOLID_BREP ( 'Zaoblit1', #241 ) ;
#23 = CARTESIAN_POINT ( 'NONE',  ( 0.000000000000000000, 0.000000000000000000, 5.000000000000000000 ) ) ;
#24 = VECTOR ( 'NONE', #149, 1000.000000000000000 ) ;
#25 = PERSON_AND_ORGANIZATION ( #29, #228 ) ;
#26 = DIRECTION ( 'NONE',  ( 1.224646799147353207E-16, 1.000000000000000000, -0.000000000000000000 ) ) ;
#27 = DATE_TIME_ROLE ( 'creation_date' ) ;
#28 = ORIENTED_EDGE ( 'NONE', *, *, #44, .T. ) ;
#29 = PERSON ( 'NEURÈENÝ', 'NEURÈENÝ', 'NEURÈENÝ', ('NEURÈENÝ'), ('NEURÈENÝ'), ('NEURÈENÝ') ) ;
#30 = APPROVAL_ROLE ( '' ) ;
#31 = CC_DESIGN_SECURITY_CLASSIFICATION ( #15, ( #279 ) ) ;
#32 = ORIENTED_EDGE ( 'NONE', *, *, #212, .T. ) ;
#33 = EDGE_LOOP ( 'NONE', ( #190, #182 ) ) ;
#34 = SECURITY_CLASSIFICATION_LEVEL ( 'unclassified' ) ;
#35 = CARTESIAN_POINT ( 'NONE',  ( -7.000000000000000000, 0.000000000000000000, 5.000000000000000000 ) ) ;
#36 = DIRECTION ( 'NONE',  ( -0.000000000000000000, -0.000000000000000000, -1.000000000000000000 ) ) ;
#37 = UNCERTAINTY_MEASURE_WITH_UNIT (LENGTH_MEASURE( 1.000000000000000082E-05 ), #280, 'distance_accuracy_value', 'NONE');
#38 = CC_DESIGN_DATE_AND_TIME_ASSIGNMENT ( #230, #27, ( #267 ) ) ;
#39 = FACE_OUTER_BOUND ( 'NONE', #71, .T. ) ;
#40 = CARTESIAN_POINT ( 'NONE',  ( 7.000000000000000000, 8.572527594031473190E-16, 5.000000000000000000 ) ) ;
#41 = CIRCLE ( 'NONE', #263, 0.1999999999999996503 ) ;
#42 = DIRECTION ( 'NONE',  ( -1.000000000000000000, 0.000000000000000000, 0.000000000000000000 ) ) ;
#43 = ORIENTED_EDGE ( 'NONE', *, *, #184, .F. ) ;
#44 = EDGE_CURVE ( 'NONE', #191, #116, #117, .T. ) ;
#45 = AXIS2_PLACEMENT_3D ( 'NONE', #298, #137, #222 ) ;
#46 = CYLINDRICAL_SURFACE ( 'NONE', #14, 7.000000000000000000 ) ;
#47 = ORIENTED_EDGE ( 'NONE', *, *, #232, .F. ) ;
#48 = PERSON_AND_ORGANIZATION ( #29, #228 ) ;
#49 = CIRCLE ( 'NONE', #215, 4.250000000000000000 ) ;
#50 = VERTEX_POINT ( 'NONE', #101 ) ;
#51 = PERSON_AND_ORGANIZATION_ROLE ( 'design_owner' ) ;
#52 = CARTESIAN_POINT ( 'NONE',  ( 0.000000000000000000, 0.000000000000000000, 5.000000000000000000 ) ) ;
#53 = ORIENTED_EDGE ( 'NONE', *, *, #157, .F. ) ;
#54 = ADVANCED_FACE ( 'NONE', ( #119 ), #283, .T. ) ;
#55 = APPROVAL_DATE_TIME ( #196, #240 ) ;
#56 = VECTOR ( 'NONE', #36, 1000.000000000000000 ) ;
#57 = APPROVAL_PERSON_ORGANIZATION ( #266, #240, #102 ) ;
#58 = ORIENTED_EDGE ( 'NONE', *, *, #80, .F. ) ;
#59 = ORIENTED_EDGE ( 'NONE', *, *, #184, .T. ) ;
#60 = ADVANCED_FACE ( 'NONE', ( #167 ), #140, .T. ) ;
#61 = CARTESIAN_POINT ( 'NONE',  ( -4.250000000000000000, 0.000000000000000000, 405.0000000000000000 ) ) ;
#62 = CIRCLE ( 'NONE', #45, 4.450000000000000178 ) ;
#63 = CARTESIAN_POINT ( 'NONE',  ( 4.250000000000000000, 5.204748896376250699E-16, 405.0000000000000000 ) ) ;
#64 = SHAPE_DEFINITION_REPRESENTATION ( #242, #276 ) ;
#65 = AXIS2_PLACEMENT_3D ( 'NONE', #144, #233, #4 ) ;
#66 = CC_DESIGN_APPROVAL ( #197, ( #279 ) ) ;
#67 = DIRECTION ( 'NONE',  ( 0.000000000000000000, 0.000000000000000000, 1.000000000000000000 ) ) ;
#68 = ADVANCED_FACE ( 'NONE', ( #256 ), #287, .F. ) ;
#69 = CC_DESIGN_PERSON_AND_ORGANIZATION_ASSIGNMENT ( #25, #118, ( #267 ) ) ;
#70 = DIRECTION ( 'NONE',  ( 1.000000000000000000, 0.000000000000000000, 0.000000000000000000 ) ) ;
#71 = EDGE_LOOP ( 'NONE', ( #138, #13 ) ) ;
#72 = DATE_AND_TIME ( #160, #294 ) ;
#73 = PERSON_AND_ORGANIZATION ( #29, #228 ) ;
#74 = AXIS2_PLACEMENT_3D ( 'NONE', #234, #210, #209 ) ;
#75 = CARTESIAN_POINT ( 'NONE',  ( 0.000000000000000000, 0.000000000000000000, 5.199999999999982414 ) ) ;
#76 = CALENDAR_DATE ( 2022, 20, 6 ) ;
#77 = ORIENTED_EDGE ( 'NONE', *, *, #18, .T. ) ;
#78 = DIRECTION ( 'NONE',  ( 1.000000000000000000, 0.000000000000000000, 0.000000000000000000 ) ) ;
#79 = CARTESIAN_POINT ( 'NONE',  ( -4.450000000000000178, 5.449678256205721784E-16, 5.199999999999982414 ) ) ;
#80 = EDGE_CURVE ( 'NONE', #116, #191, #226, .T. ) ;
#81 = EDGE_LOOP ( 'NONE', ( #99, #77, #47, #285 ) ) ;
#82 = DATE_AND_TIME ( #173, #164 ) ;
#83 = CARTESIAN_POINT ( 'NONE',  ( -4.250000000000000000, 0.000000000000000000, 405.0000000000000000 ) ) ;
#84 = DIRECTION ( 'NONE',  ( -0.000000000000000000, -0.000000000000000000, -1.000000000000000000 ) ) ;
#85 = PERSON_AND_ORGANIZATION_ROLE ( 'classification_officer' ) ;
#86 = AXIS2_PLACEMENT_3D ( 'NONE', #131, #91, #89 ) ;
#87 = DIRECTION ( 'NONE',  ( -0.000000000000000000, -0.000000000000000000, -1.000000000000000000 ) ) ;
#88 = CIRCLE ( 'NONE', #252, 4.250000000000000000 ) ;
#89 = DIRECTION ( 'NONE',  ( 1.000000000000000000, 0.000000000000000000, 0.000000000000000000 ) ) ;
#90 = PRODUCT_RELATED_PRODUCT_CATEGORY ( 'detail', '', ( #295 ) ) ;
#91 = DIRECTION ( 'NONE',  ( 0.000000000000000000, 0.000000000000000000, 1.000000000000000000 ) ) ;
#92 = CALENDAR_DATE ( 2022, 20, 6 ) ;
#93 = ORIENTED_EDGE ( 'NONE', *, *, #257, .F. ) ;
#94 = AXIS2_PLACEMENT_3D ( 'NONE', #274, #108, #70 ) ;
#95 = EDGE_CURVE ( 'NONE', #213, #50, #110, .T. ) ;
#96 = AXIS2_PLACEMENT_3D ( 'NONE', #75, #176, #112 ) ;
#97 = ORIENTED_EDGE ( 'NONE', *, *, #203, .T. ) ;
#98 = AXIS2_PLACEMENT_3D ( 'NONE', #225, #270, #12 ) ;
#99 = ORIENTED_EDGE ( 'NONE', *, *, #212, .F. ) ;
#100 = APPROVAL_STATUS ( 'not_yet_approved' ) ;
#101 = CARTESIAN_POINT ( 'NONE',  ( 4.450000000000000178, 0.000000000000000000, 4.999999999999991118 ) ) ;
#102 = APPROVAL_ROLE ( '' ) ;
#103 = CARTESIAN_POINT ( 'NONE',  ( 0.000000000000000000, 0.000000000000000000, 5.199999999999982414 ) ) ;
#104 = ORIENTED_EDGE ( 'NONE', *, *, #244, .T. ) ;
#105 = COORDINATED_UNIVERSAL_TIME_OFFSET ( 1, 0, .AHEAD. ) ;
#106 = CYLINDRICAL_SURFACE ( 'NONE', #194, 7.000000000000000000 ) ;
#107 = PERSON_AND_ORGANIZATION_ROLE ( 'design_supplier' ) ;
#108 = DIRECTION ( 'NONE',  ( 0.000000000000000000, 0.000000000000000000, 1.000000000000000000 ) ) ;
#109 = CC_DESIGN_PERSON_AND_ORGANIZATION_ASSIGNMENT ( #123, #107, ( #279 ) ) ;
#110 = CIRCLE ( 'NONE', #175, 0.1999999999999996503 ) ;
#111 = EDGE_CURVE ( 'NONE', #213, #180, #281, .T. ) ;
#112 = DIRECTION ( 'NONE',  ( 1.000000000000000000, 0.000000000000000000, 0.000000000000000000 ) ) ;
#113 = DIRECTION ( 'NONE',  ( 0.000000000000000000, 0.000000000000000000, 1.000000000000000000 ) ) ;
#114 = EDGE_LOOP ( 'NONE', ( #275, #204, #126, #300 ) ) ;
#115 = LINE ( 'NONE', #83, #265 ) ;
#116 = VERTEX_POINT ( 'NONE', #35 ) ;
#117 = CIRCLE ( 'NONE', #74, 7.000000000000000000 ) ;
#118 = PERSON_AND_ORGANIZATION_ROLE ( 'creator' ) ;
#119 = FACE_OUTER_BOUND ( 'NONE', #33, .T. ) ;
#120 = ADVANCED_FACE ( 'NONE', ( #128 ), #189, .F. ) ;
#121 = FACE_OUTER_BOUND ( 'NONE', #206, .T. ) ;
#122 = ORIENTED_EDGE ( 'NONE', *, *, #18, .F. ) ;
#123 = PERSON_AND_ORGANIZATION ( #29, #228 ) ;
#124 = CC_DESIGN_APPROVAL ( #171, ( #267 ) ) ;
#125 = VERTEX_POINT ( 'NONE', #195 ) ;
#126 = ORIENTED_EDGE ( 'NONE', *, *, #111, .T. ) ;
#127 = COORDINATED_UNIVERSAL_TIME_OFFSET ( 1, 0, .AHEAD. ) ;
#128 = FACE_OUTER_BOUND ( 'NONE', #81, .T. ) ;
#129 = CIRCLE ( 'NONE', #201, 4.250000000000000000 ) ;
#130 = FACE_OUTER_BOUND ( 'NONE', #19, .T. ) ;
#131 = CARTESIAN_POINT ( 'NONE',  ( 0.000000000000000000, 0.000000000000000000, 0.000000000000000000 ) ) ;
#132 = ADVANCED_FACE ( 'NONE', ( #199 ), #202, .T. ) ;
#133 = ADVANCED_FACE ( 'NONE', ( #39 ), #247, .F. ) ;
#134 = CARTESIAN_POINT ( 'NONE',  ( 0.000000000000000000, 0.000000000000000000, 5.199999999999982414 ) ) ;
#135 = DIRECTION ( 'NONE',  ( 0.000000000000000000, 0.000000000000000000, 1.000000000000000000 ) ) ;
#136 = CIRCLE ( 'NONE', #98, 4.450000000000000178 ) ;
#137 = DIRECTION ( 'NONE',  ( -0.000000000000000000, -0.000000000000000000, -1.000000000000000000 ) ) ;
#138 = ORIENTED_EDGE ( 'NONE', *, *, #244, .F. ) ;
#139 = EDGE_CURVE ( 'NONE', #231, #125, #178, .T. ) ;
#140 = CYLINDRICAL_SURFACE ( 'NONE', #65, 4.250000000000000000 ) ;
#141 = EDGE_CURVE ( 'NONE', #169, #286, #49, .T. ) ;
#142 = DIRECTION ( 'NONE',  ( 1.000000000000000000, 0.000000000000000000, 0.000000000000000000 ) ) ;
#143 = APPROVAL_STATUS ( 'not_yet_approved' ) ;
#144 = CARTESIAN_POINT ( 'NONE',  ( 0.000000000000000000, 0.000000000000000000, 405.0000000000000000 ) ) ;
#145 = AXIS2_PLACEMENT_3D ( 'NONE', #161, #282, #78 ) ;
#146 = EDGE_LOOP ( 'NONE', ( #122, #273, #296, #93 ) ) ;
#147 = PERSON_AND_ORGANIZATION_ROLE ( 'creator' ) ;
#148 = DIRECTION ( 'NONE',  ( 0.000000000000000000, 0.000000000000000000, 1.000000000000000000 ) ) ;
#149 = DIRECTION ( 'NONE',  ( -0.000000000000000000, -0.000000000000000000, -1.000000000000000000 ) ) ;
#150 = APPROVAL_PERSON_ORGANIZATION ( #258, #197, #30 ) ;
#151 = CARTESIAN_POINT ( 'NONE',  ( 4.250000000000000000, 5.204748896376250699E-16, 5.199999999999982414 ) ) ;
#152 = CC_DESIGN_DATE_AND_TIME_ASSIGNMENT ( #82, #236, ( #15 ) ) ;
#153 = DIRECTION ( 'NONE',  ( 1.000000000000000000, 0.000000000000000000, -0.000000000000000000 ) ) ;
#154 = ORIENTED_EDGE ( 'NONE', *, *, #257, .T. ) ;
#155 = FACE_OUTER_BOUND ( 'NONE', #177, .T. ) ;
#156 = CARTESIAN_POINT ( 'NONE',  ( 0.000000000000000000, 0.000000000000000000, 5.000000000000000000 ) ) ;
#157 = EDGE_CURVE ( 'NONE', #286, #169, #88, .T. ) ;
#158 = LOCAL_TIME ( 11, 44, 38.00000000000000000, #166 ) ;
#159 = CC_DESIGN_PERSON_AND_ORGANIZATION_ASSIGNMENT ( #73, #51, ( #295 ) ) ;
#160 = CALENDAR_DATE ( 2022, 20, 6 ) ;
#161 = CARTESIAN_POINT ( 'NONE',  ( 0.000000000000000000, 0.000000000000000000, 0.000000000000000000 ) ) ;
#162 = APPROVAL_STATUS ( 'not_yet_approved' ) ;
#163 = ORIENTED_EDGE ( 'NONE', *, *, #44, .F. ) ;
#164 = LOCAL_TIME ( 11, 44, 38.00000000000000000, #127 ) ;
#165 = CARTESIAN_POINT ( 'NONE',  ( 0.000000000000000000, 0.000000000000000000, 405.0000000000000000 ) ) ;
#166 = COORDINATED_UNIVERSAL_TIME_OFFSET ( 1, 0, .AHEAD. ) ;
#167 = FACE_OUTER_BOUND ( 'NONE', #114, .T. ) ;
#168 = CARTESIAN_POINT ( 'NONE',  ( 4.450000000000000178, 0.000000000000000000, 5.199999999999982414 ) ) ;
#169 = VERTEX_POINT ( 'NONE', #291 ) ;
#170 = DIRECTION ( 'NONE',  ( 1.000000000000000000, 0.000000000000000000, 0.000000000000000000 ) ) ;
#171 = APPROVAL ( #162, 'NEURÈENÝ' ) ;
#172 = CARTESIAN_POINT ( 'NONE',  ( 0.000000000000000000, 0.000000000000000000, 405.0000000000000000 ) ) ;
#173 = CALENDAR_DATE ( 2022, 20, 6 ) ;
#174 = VECTOR ( 'NONE', #87, 1000.000000000000000 ) ;
#175 = AXIS2_PLACEMENT_3D ( 'NONE', #168, #5, #7 ) ;
#176 = DIRECTION ( 'NONE',  ( 0.000000000000000000, 0.000000000000000000, 1.000000000000000000 ) ) ;
#177 = EDGE_LOOP ( 'NONE', ( #163, #97, #229, #43 ) ) ;
#178 = CIRCLE ( 'NONE', #86, 7.000000000000000000 ) ;
#179 = DIRECTION ( 'NONE',  ( 1.000000000000000000, 0.000000000000000000, 0.000000000000000000 ) ) ;
#180 = VERTEX_POINT ( 'NONE', #8 ) ;
#181 = DIRECTION ( 'NONE',  ( 1.000000000000000000, 0.000000000000000000, 0.000000000000000000 ) ) ;
#182 = ORIENTED_EDGE ( 'NONE', *, *, #141, .T. ) ;
#183 = CC_DESIGN_PERSON_AND_ORGANIZATION_ASSIGNMENT ( #48, #147, ( #279 ) ) ;
#184 = EDGE_CURVE ( 'NONE', #116, #125, #264, .T. ) ;
#185 = DIRECTION ( 'NONE',  ( 0.000000000000000000, 0.000000000000000000, 1.000000000000000000 ) ) ;
#186 = VERTEX_POINT ( 'NONE', #216 ) ;
#187 = LOCAL_TIME ( 11, 44, 38.00000000000000000, #278 ) ;
#188 = DATE_AND_TIME ( #92, #158 ) ;
#189 = TOROIDAL_SURFACE ( 'NONE', #96, 4.450000000000000178, 0.2000000000000000111 ) ;
#190 = ORIENTED_EDGE ( 'NONE', *, *, #157, .T. ) ;
#191 = VERTEX_POINT ( 'NONE', #238 ) ;
#192 = DIRECTION ( 'NONE',  ( 0.000000000000000000, 0.000000000000000000, 1.000000000000000000 ) ) ;
#193 = DIRECTION ( 'NONE',  ( 0.000000000000000000, 0.000000000000000000, 1.000000000000000000 ) ) ;
#194 = AXIS2_PLACEMENT_3D ( 'NONE', #198, #239, #218 ) ;
#195 = CARTESIAN_POINT ( 'NONE',  ( -7.000000000000000000, 0.000000000000000000, 0.000000000000000000 ) ) ;
#196 = DATE_AND_TIME ( #289, #211 ) ;
#197 = APPROVAL ( #143, 'NEURÈENÝ' ) ;
#198 = CARTESIAN_POINT ( 'NONE',  ( 0.000000000000000000, 0.000000000000000000, 5.000000000000000000 ) ) ;
#199 = FACE_OUTER_BOUND ( 'NONE', #246, .T. ) ;
#200 = DIRECTION ( 'NONE',  ( -1.000000000000000000, 0.000000000000000000, 0.000000000000000000 ) ) ;
#201 = AXIS2_PLACEMENT_3D ( 'NONE', #134, #67, #181 ) ;
#202 = CYLINDRICAL_SURFACE ( 'NONE', #11, 4.250000000000000000 ) ;
#203 = EDGE_CURVE ( 'NONE', #191, #231, #16, .T. ) ;
#204 = ORIENTED_EDGE ( 'NONE', *, *, #292, .T. ) ;
#205 = COORDINATED_UNIVERSAL_TIME_OFFSET ( 1, 0, .AHEAD. ) ;
#206 = EDGE_LOOP ( 'NONE', ( #220, #28 ) ) ;
#207 = APPROVAL_ROLE ( '' ) ;
#208 = PLANE ( 'NONE',  #224 ) ;
#209 = DIRECTION ( 'NONE',  ( 1.000000000000000000, 0.000000000000000000, 0.000000000000000000 ) ) ;
#210 = DIRECTION ( 'NONE',  ( 0.000000000000000000, 0.000000000000000000, 1.000000000000000000 ) ) ;
#211 = LOCAL_TIME ( 11, 44, 38.00000000000000000, #105 ) ;
#212 = EDGE_CURVE ( 'NONE', #180, #213, #129, .T. ) ;
#213 = VERTEX_POINT ( 'NONE', #151 ) ;
#214 = ORIENTED_EDGE ( 'NONE', *, *, #292, .F. ) ;
#215 = AXIS2_PLACEMENT_3D ( 'NONE', #10, #113, #179 ) ;
#216 = CARTESIAN_POINT ( 'NONE',  ( -4.450000000000000178, 5.449678256205721784E-16, 4.999999999999991118 ) ) ;
#217 = DESIGN_CONTEXT ( 'detailed design', #297, 'design' ) ;
#218 = DIRECTION ( 'NONE',  ( -1.000000000000000000, 0.000000000000000000, 0.000000000000000000 ) ) ;
#219 = CARTESIAN_POINT ( 'NONE',  ( 7.000000000000000000, 8.572527594031473190E-16, 0.000000000000000000 ) ) ;
#220 = ORIENTED_EDGE ( 'NONE', *, *, #80, .T. ) ;
#221 = ADVANCED_FACE ( 'NONE', ( #155 ), #46, .T. ) ;
#222 = DIRECTION ( 'NONE',  ( 1.000000000000000000, 0.000000000000000000, 0.000000000000000000 ) ) ;
#223 = CIRCLE ( 'NONE', #94, 7.000000000000000000 ) ;
#224 = AXIS2_PLACEMENT_3D ( 'NONE', #23, #185, #302 ) ;
#225 = CARTESIAN_POINT ( 'NONE',  ( 0.000000000000000000, 0.000000000000000000, 5.000000000000000000 ) ) ;
#226 = CIRCLE ( 'NONE', #6, 7.000000000000000000 ) ;
#227 = APPROVAL_DATE_TIME ( #188, #171 ) ;
#228 = ORGANIZATION ( 'NEURÈENÝ', 'NEURÈENÝ', '' ) ;
#229 = ORIENTED_EDGE ( 'NONE', *, *, #139, .T. ) ;
#230 = DATE_AND_TIME ( #76, #187 ) ;
#231 = VERTEX_POINT ( 'NONE', #219 ) ;
#232 = EDGE_CURVE ( 'NONE', #50, #186, #62, .T. ) ;
#233 = DIRECTION ( 'NONE',  ( -0.000000000000000000, -0.000000000000000000, -1.000000000000000000 ) ) ;
#234 = CARTESIAN_POINT ( 'NONE',  ( 0.000000000000000000, 0.000000000000000000, 5.000000000000000000 ) ) ;
#235 = APPLICATION_CONTEXT ( 'configuration controlled 3d designs of mechanical parts and assemblies' ) ;
#236 = DATE_TIME_ROLE ( 'classification_date' ) ;
#237 = DIRECTION ( 'NONE',  ( 1.000000000000000000, 0.000000000000000000, 0.000000000000000000 ) ) ;
#238 = CARTESIAN_POINT ( 'NONE',  ( 7.000000000000000000, 8.572527594031473190E-16, 5.000000000000000000 ) ) ;
#239 = DIRECTION ( 'NONE',  ( -0.000000000000000000, -0.000000000000000000, -1.000000000000000000 ) ) ;
#240 = APPROVAL ( #100, 'NEURÈENÝ' ) ;
#241 = CLOSED_SHELL ( 'NONE', ( #120, #60, #221, #301, #304, #133, #132, #54, #68 ) ) ;
#242 = PRODUCT_DEFINITION_SHAPE ( 'NONE', 'NONE',  #267 ) ;
#243 = DIRECTION ( 'NONE',  ( 0.000000000000000000, 0.000000000000000000, 1.000000000000000000 ) ) ;
#244 = EDGE_CURVE ( 'NONE', #125, #231, #223, .T. ) ;
#245 = DIRECTION ( 'NONE',  ( -0.000000000000000000, -0.000000000000000000, -1.000000000000000000 ) ) ;
#246 = EDGE_LOOP ( 'NONE', ( #214, #53, #254, #32 ) ) ;
#247 = PLANE ( 'NONE',  #277 ) ;
#248 = APPROVAL_DATE_TIME ( #72, #197 ) ;
#249 = APPLICATION_PROTOCOL_DEFINITION ( 'international standard', 'config_control_design', 1994, #235 ) ;
#250 = AXIS2_PLACEMENT_3D ( 'NONE', #103, #288, #237 ) ;
#251 = MECHANICAL_CONTEXT ( 'NONE', #235, 'mechanical' ) ;
#252 = AXIS2_PLACEMENT_3D ( 'NONE', #172, #243, #170 ) ;
#253 = APPROVAL_PERSON_ORGANIZATION ( #20, #171, #207 ) ;
#254 = ORIENTED_EDGE ( 'NONE', *, *, #268, .T. ) ;
#255 =( NAMED_UNIT ( * ) PLANE_ANGLE_UNIT ( ) SI_UNIT ( $, .RADIAN. ) );
#256 = FACE_OUTER_BOUND ( 'NONE', #146, .T. ) ;
#257 = EDGE_CURVE ( 'NONE', #186, #50, #136, .T. ) ;
#258 = PERSON_AND_ORGANIZATION ( #29, #228 ) ;
#259 = ORIENTED_EDGE ( 'NONE', *, *, #232, .T. ) ;
#260 = DIRECTION ( 'NONE',  ( 1.000000000000000000, 0.000000000000000000, 0.000000000000000000 ) ) ;
#261 = CARTESIAN_POINT ( 'NONE',  ( 0.000000000000000000, 0.000000000000000000, 5.199999999999982414 ) ) ;
#262 = DIRECTION ( 'NONE',  ( -0.000000000000000000, -0.000000000000000000, -1.000000000000000000 ) ) ;
#263 = AXIS2_PLACEMENT_3D ( 'NONE', #79, #26, #306 ) ;
#264 = LINE ( 'NONE', #272, #174 ) ;
#265 = VECTOR ( 'NONE', #262, 1000.000000000000000 ) ;
#266 = PERSON_AND_ORGANIZATION ( #29, #228 ) ;
#267 = PRODUCT_DEFINITION ( 'NEZNÁMÝ', '', #279, #217 ) ;
#268 = EDGE_CURVE ( 'NONE', #286, #180, #115, .T. ) ;
#269 = AXIS2_PLACEMENT_3D ( 'NONE', #165, #192, #2 ) ;
#270 = DIRECTION ( 'NONE',  ( -0.000000000000000000, -0.000000000000000000, -1.000000000000000000 ) ) ;
#271 = ORIENTED_EDGE ( 'NONE', *, *, #203, .F. ) ;
#272 = CARTESIAN_POINT ( 'NONE',  ( -7.000000000000000000, 0.000000000000000000, 5.000000000000000000 ) ) ;
#273 = ORIENTED_EDGE ( 'NONE', *, *, #111, .F. ) ;
#274 = CARTESIAN_POINT ( 'NONE',  ( 0.000000000000000000, 0.000000000000000000, 0.000000000000000000 ) ) ;
#275 = ORIENTED_EDGE ( 'NONE', *, *, #141, .F. ) ;
#276 = ADVANCED_BREP_SHAPE_REPRESENTATION ( 'f8c7', ( #22, #145 ), #1 ) ;
#277 = AXIS2_PLACEMENT_3D ( 'NONE', #17, #135, #153 ) ;
#278 = COORDINATED_UNIVERSAL_TIME_OFFSET ( 1, 0, .AHEAD. ) ;
#279 = PRODUCT_DEFINITION_FORMATION_WITH_SPECIFIED_SOURCE ( 'LIBOVOLNÝ', '', #295, .NOT_KNOWN. ) ;
#280 =( LENGTH_UNIT ( ) NAMED_UNIT ( * ) SI_UNIT ( .MILLI., .METRE. ) );
#281 = CIRCLE ( 'NONE', #250, 4.250000000000000000 ) ;
#282 = DIRECTION ( 'NONE',  ( 0.000000000000000000, 0.000000000000000000, 1.000000000000000000 ) ) ;
#283 = PLANE ( 'NONE',  #269 ) ;
#284 = APPLICATION_PROTOCOL_DEFINITION ( 'international standard', 'config_control_design', 1994, #297 ) ;
#285 = ORIENTED_EDGE ( 'NONE', *, *, #95, .F. ) ;
#286 = VERTEX_POINT ( 'NONE', #61 ) ;
#287 = TOROIDAL_SURFACE ( 'NONE', #21, 4.450000000000000178, 0.2000000000000000111 ) ;
#288 = DIRECTION ( 'NONE',  ( 0.000000000000000000, 0.000000000000000000, 1.000000000000000000 ) ) ;
#289 = CALENDAR_DATE ( 2022, 20, 6 ) ;
#290 = CARTESIAN_POINT ( 'NONE',  ( 0.000000000000000000, 0.000000000000000000, 405.0000000000000000 ) ) ;
#291 = CARTESIAN_POINT ( 'NONE',  ( 4.250000000000000000, 5.204748896376250699E-16, 405.0000000000000000 ) ) ;
#292 = EDGE_CURVE ( 'NONE', #169, #213, #293, .T. ) ;
#293 = LINE ( 'NONE', #63, #24 ) ;
#294 = LOCAL_TIME ( 11, 44, 38.00000000000000000, #205 ) ;
#295 = PRODUCT ( 'f8c7', 'f8c7', '', ( #251 ) ) ;
#296 = ORIENTED_EDGE ( 'NONE', *, *, #95, .T. ) ;
#297 = APPLICATION_CONTEXT ( 'configuration controlled 3d designs of mechanical parts and assemblies' ) ;
#298 = CARTESIAN_POINT ( 'NONE',  ( 0.000000000000000000, 0.000000000000000000, 5.000000000000000000 ) ) ;
#299 = EDGE_LOOP ( 'NONE', ( #259, #154 ) ) ;
#300 = ORIENTED_EDGE ( 'NONE', *, *, #268, .F. ) ;
#301 = ADVANCED_FACE ( 'NONE', ( #130 ), #106, .T. ) ;
#302 = DIRECTION ( 'NONE',  ( 1.000000000000000000, 0.000000000000000000, -0.000000000000000000 ) ) ;
#303 = CC_DESIGN_APPROVAL ( #240, ( #15 ) ) ;
#304 = ADVANCED_FACE ( 'NONE', ( #305, #121 ), #208, .T. ) ;
#305 = FACE_BOUND ( 'NONE', #299, .T. ) ;
#306 = DIRECTION ( 'NONE',  ( -1.000000000000000000, 1.224646799147353454E-16, 0.000000000000000000 ) ) ;
#307 =( NAMED_UNIT ( * ) SI_UNIT ( $, .STERADIAN. ) SOLID_ANGLE_UNIT ( ) );
ENDSEC;
END-ISO-10303-21;
