ISO-10303-21;
HEADER;
FILE_DESCRIPTION (( 'STEP AP203' ),
    '1' );
FILE_NAME ('a8a3.STEP',
    '2022-06-20T09:27:59',
    ( '' ),
    ( '' ),
    'SwSTEP 2.0',
    'SolidWorks 2019',
    '' );
FILE_SCHEMA (( 'CONFIG_CONTROL_DESIGN' ));
ENDSEC;

DATA;
#1 = DIRECTION ( 'NONE',  ( -1.000000000000000000, 0.000000000000000000, 0.000000000000000000 ) ) ;
#2 = CARTESIAN_POINT ( 'NONE',  ( 6.450000000000000178, 0.000000000000000000, 7.199999999999984190 ) ) ;
#3 = DIRECTION ( 'NONE',  ( 0.000000000000000000, 0.000000000000000000, -1.000000000000000000 ) ) ;
#4 = ORIENTED_EDGE ( 'NONE', *, *, #217, .T. ) ;
#5 = PERSON_AND_ORGANIZATION ( #138, #260 ) ;
#6 = AXIS2_PLACEMENT_3D ( 'NONE', #89, #187, #91 ) ;
#7 = APPLICATION_PROTOCOL_DEFINITION ( 'international standard', 'config_control_design', 1994, #279 ) ;
#8 = EDGE_LOOP ( 'NONE', ( #32, #272, #17, #246 ) ) ;
#9 = CALENDAR_DATE ( 2022, 20, 6 ) ;
#10 = TOROIDAL_SURFACE ( 'NONE', #212, 6.450000000000000178, 0.2000000000000000111 ) ;
#11 = CC_DESIGN_APPROVAL ( #291, ( #127 ) ) ;
#12 = VERTEX_POINT ( 'NONE', #230 ) ;
#13 = EDGE_CURVE ( 'NONE', #164, #129, #175, .T. ) ;
#14 = LINE ( 'NONE', #117, #189 ) ;
#15 = DIRECTION ( 'NONE',  ( 1.000000000000000000, 0.000000000000000000, 0.000000000000000000 ) ) ;
#16 = AXIS2_PLACEMENT_3D ( 'NONE', #126, #144, #168 ) ;
#17 = ORIENTED_EDGE ( 'NONE', *, *, #13, .F. ) ;
#18 = CARTESIAN_POINT ( 'NONE',  ( 6.250000000000000000, 7.654042494670957606E-16, 637.0000000000000000 ) ) ;
#19 = EDGE_CURVE ( 'NONE', #286, #233, #14, .T. ) ;
#20 = CARTESIAN_POINT ( 'NONE',  ( 6.450000000000000178, 0.000000000000000000, 6.999999999999992006 ) ) ;
#21 = AXIS2_PLACEMENT_3D ( 'NONE', #94, #257, #15 ) ;
#22 = FACE_OUTER_BOUND ( 'NONE', #8, .T. ) ;
#23 = FACE_OUTER_BOUND ( 'NONE', #137, .T. ) ;
#24 = ADVANCED_FACE ( 'NONE', ( #42, #185 ), #303, .T. ) ;
#25 = CARTESIAN_POINT ( 'NONE',  ( 9.000000000000000000, 1.102182119232617714E-15, 0.000000000000000000 ) ) ;
#26 = CC_DESIGN_APPROVAL ( #104, ( #162 ) ) ;
#27 = CARTESIAN_POINT ( 'NONE',  ( 0.000000000000000000, 0.000000000000000000, 0.000000000000000000 ) ) ;
#28 = PRODUCT ( 'a8a3', 'a8a3', '', ( #59 ) ) ;
#29 = DATE_AND_TIME ( #245, #86 ) ;
#30 = COORDINATED_UNIVERSAL_TIME_OFFSET ( 1, 0, .AHEAD. ) ;
#31 = AXIS2_PLACEMENT_3D ( 'NONE', #93, #231, #234 ) ;
#32 = ORIENTED_EDGE ( 'NONE', *, *, #300, .F. ) ;
#33 = EDGE_LOOP ( 'NONE', ( #107, #283, #295, #244 ) ) ;
#34 = CALENDAR_DATE ( 2022, 20, 6 ) ;
#35 = DIRECTION ( 'NONE',  ( -0.000000000000000000, -0.000000000000000000, -1.000000000000000000 ) ) ;
#36 = AXIS2_PLACEMENT_3D ( 'NONE', #2, #216, #3 ) ;
#37 = AXIS2_PLACEMENT_3D ( 'NONE', #110, #53, #181 ) ;
#38 = CIRCLE ( 'NONE', #255, 9.000000000000000000 ) ;
#39 = ORIENTED_EDGE ( 'NONE', *, *, #217, .F. ) ;
#40 = EDGE_CURVE ( 'NONE', #81, #178, #190, .T. ) ;
#41 = DIRECTION ( 'NONE',  ( 0.000000000000000000, 0.000000000000000000, 1.000000000000000000 ) ) ;
#42 = FACE_BOUND ( 'NONE', #54, .T. ) ;
#43 = DESIGN_CONTEXT ( 'detailed design', #220, 'design' ) ;
#44 = DIRECTION ( 'NONE',  ( 1.000000000000000000, 0.000000000000000000, 0.000000000000000000 ) ) ;
#45 = CARTESIAN_POINT ( 'NONE',  ( 6.250000000000000000, 7.654042494670957606E-16, 7.199999999999984190 ) ) ;
#46 = CARTESIAN_POINT ( 'NONE',  ( -6.250000000000000000, 0.000000000000000000, 637.0000000000000000 ) ) ;
#47 = ADVANCED_FACE ( 'NONE', ( #116 ), #210, .T. ) ;
#48 = AXIS2_PLACEMENT_3D ( 'NONE', #113, #248, #177 ) ;
#49 = CARTESIAN_POINT ( 'NONE',  ( -9.000000000000000000, 0.000000000000000000, 7.000000000000000000 ) ) ;
#50 = DIRECTION ( 'NONE',  ( -0.000000000000000000, -0.000000000000000000, -1.000000000000000000 ) ) ;
#51 = DIRECTION ( 'NONE',  ( -0.000000000000000000, -0.000000000000000000, -1.000000000000000000 ) ) ;
#52 = CIRCLE ( 'NONE', #16, 6.450000000000000178 ) ;
#53 = DIRECTION ( 'NONE',  ( 0.000000000000000000, 0.000000000000000000, 1.000000000000000000 ) ) ;
#54 = EDGE_LOOP ( 'NONE', ( #207, #4 ) ) ;
#55 = PERSON_AND_ORGANIZATION ( #138, #260 ) ;
#56 = EDGE_CURVE ( 'NONE', #152, #233, #171, .T. ) ;
#57 = CC_DESIGN_PERSON_AND_ORGANIZATION_ASSIGNMENT ( #109, #249, ( #162 ) ) ;
#58 = APPROVAL_STATUS ( 'not_yet_approved' ) ;
#59 = MECHANICAL_CONTEXT ( 'NONE', #279, 'mechanical' ) ;
#60 = ORIENTED_EDGE ( 'NONE', *, *, #193, .T. ) ;
#61 = APPROVAL_ROLE ( '' ) ;
#62 = PERSON_AND_ORGANIZATION ( #138, #260 ) ;
#63 = DIRECTION ( 'NONE',  ( 0.000000000000000000, 0.000000000000000000, 1.000000000000000000 ) ) ;
#64 =( GEOMETRIC_REPRESENTATION_CONTEXT ( 3 ) GLOBAL_UNCERTAINTY_ASSIGNED_CONTEXT ( ( #276 ) ) GLOBAL_UNIT_ASSIGNED_CONTEXT ( ( #78, #83, #225 ) ) REPRESENTATION_CONTEXT ( 'NONE', 'WORKASPACE' ) );
#65 = VECTOR ( 'NONE', #35, 1000.000000000000000 ) ;
#66 = ORIENTED_EDGE ( 'NONE', *, *, #98, .T. ) ;
#67 = ORIENTED_EDGE ( 'NONE', *, *, #281, .F. ) ;
#68 = CARTESIAN_POINT ( 'NONE',  ( 0.000000000000000000, 0.000000000000000000, 7.000000000000000000 ) ) ;
#69 = CARTESIAN_POINT ( 'NONE',  ( -6.450000000000000178, 7.898971854500428692E-16, 7.199999999999984190 ) ) ;
#70 = DIRECTION ( 'NONE',  ( 0.000000000000000000, 0.000000000000000000, 1.000000000000000000 ) ) ;
#71 = CARTESIAN_POINT ( 'NONE',  ( -9.000000000000000000, 0.000000000000000000, 7.000000000000000000 ) ) ;
#72 = CIRCLE ( 'NONE', #6, 9.000000000000000000 ) ;
#73 = FACE_OUTER_BOUND ( 'NONE', #150, .T. ) ;
#74 = DIRECTION ( 'NONE',  ( 1.000000000000000000, 0.000000000000000000, 0.000000000000000000 ) ) ;
#75 = EDGE_CURVE ( 'NONE', #160, #286, #38, .T. ) ;
#76 = APPLICATION_PROTOCOL_DEFINITION ( 'international standard', 'config_control_design', 1994, #220 ) ;
#77 = AXIS2_PLACEMENT_3D ( 'NONE', #125, #51, #1 ) ;
#78 =( LENGTH_UNIT ( ) NAMED_UNIT ( * ) SI_UNIT ( .MILLI., .METRE. ) );
#79 = ORIENTED_EDGE ( 'NONE', *, *, #297, .F. ) ;
#80 = APPROVAL_DATE_TIME ( #204, #145 ) ;
#81 = VERTEX_POINT ( 'NONE', #18 ) ;
#82 = EDGE_CURVE ( 'NONE', #233, #152, #72, .T. ) ;
#83 =( NAMED_UNIT ( * ) PLANE_ANGLE_UNIT ( ) SI_UNIT ( $, .RADIAN. ) );
#84 = ORIENTED_EDGE ( 'NONE', *, *, #281, .T. ) ;
#85 = PERSON_AND_ORGANIZATION ( #138, #260 ) ;
#86 = LOCAL_TIME ( 11, 27, 59.00000000000000000, #133 ) ;
#87 = COORDINATED_UNIVERSAL_TIME_OFFSET ( 1, 0, .AHEAD. ) ;
#88 = ORIENTED_EDGE ( 'NONE', *, *, #19, .F. ) ;
#89 = CARTESIAN_POINT ( 'NONE',  ( 0.000000000000000000, 0.000000000000000000, 0.000000000000000000 ) ) ;
#90 = CIRCLE ( 'NONE', #48, 6.250000000000000000 ) ;
#91 = DIRECTION ( 'NONE',  ( 1.000000000000000000, 0.000000000000000000, 0.000000000000000000 ) ) ;
#92 = EDGE_CURVE ( 'NONE', #286, #160, #101, .T. ) ;
#93 = CARTESIAN_POINT ( 'NONE',  ( 0.000000000000000000, 0.000000000000000000, 7.000000000000000000 ) ) ;
#94 = CARTESIAN_POINT ( 'NONE',  ( 0.000000000000000000, 0.000000000000000000, 7.000000000000000000 ) ) ;
#95 = CIRCLE ( 'NONE', #134, 0.1999999999999996503 ) ;
#96 = CARTESIAN_POINT ( 'NONE',  ( 0.000000000000000000, 0.000000000000000000, 7.000000000000000000 ) ) ;
#97 = PRODUCT_DEFINITION_SHAPE ( 'NONE', 'NONE',  #162 ) ;
#98 = EDGE_CURVE ( 'NONE', #81, #120, #289, .T. ) ;
#99 = CARTESIAN_POINT ( 'NONE',  ( 0.000000000000000000, 0.000000000000000000, 7.199999999999984190 ) ) ;
#100 = CARTESIAN_POINT ( 'NONE',  ( 0.000000000000000000, 0.000000000000000000, 637.0000000000000000 ) ) ;
#101 = CIRCLE ( 'NONE', #119, 9.000000000000000000 ) ;
#102 = CARTESIAN_POINT ( 'NONE',  ( 0.000000000000000000, 0.000000000000000000, 7.199999999999984190 ) ) ;
#103 = ADVANCED_FACE ( 'NONE', ( #136 ), #219, .T. ) ;
#104 = APPROVAL ( #58, 'NEURÈENÝ' ) ;
#105 = DIRECTION ( 'NONE',  ( 1.000000000000000000, 0.000000000000000000, 0.000000000000000000 ) ) ;
#106 = APPROVAL_ROLE ( '' ) ;
#107 = ORIENTED_EDGE ( 'NONE', *, *, #92, .F. ) ;
#108 = APPROVAL_STATUS ( 'not_yet_approved' ) ;
#109 = PERSON_AND_ORGANIZATION ( #138, #260 ) ;
#110 = CARTESIAN_POINT ( 'NONE',  ( 0.000000000000000000, 0.000000000000000000, 0.000000000000000000 ) ) ;
#111 = EDGE_LOOP ( 'NONE', ( #180, #301 ) ) ;
#112 = AXIS2_PLACEMENT_3D ( 'NONE', #102, #213, #105 ) ;
#113 = CARTESIAN_POINT ( 'NONE',  ( 0.000000000000000000, 0.000000000000000000, 7.199999999999984190 ) ) ;
#114 = LOCAL_TIME ( 11, 27, 59.00000000000000000, #201 ) ;
#115 = ORIENTED_EDGE ( 'NONE', *, *, #193, .F. ) ;
#116 = FACE_OUTER_BOUND ( 'NONE', #33, .T. ) ;
#117 = CARTESIAN_POINT ( 'NONE',  ( 9.000000000000000000, 1.102182119232617714E-15, 7.000000000000000000 ) ) ;
#118 = ADVANCED_BREP_SHAPE_REPRESENTATION ( 'a8a3', ( #304, #37 ), #64 ) ;
#119 = AXIS2_PLACEMENT_3D ( 'NONE', #68, #41, #278 ) ;
#120 = VERTEX_POINT ( 'NONE', #146 ) ;
#121 = ORIENTED_EDGE ( 'NONE', *, *, #264, .T. ) ;
#122 = DIRECTION ( 'NONE',  ( 0.000000000000000000, 0.000000000000000000, 1.000000000000000000 ) ) ;
#123 = VECTOR ( 'NONE', #50, 1000.000000000000000 ) ;
#124 = CARTESIAN_POINT ( 'NONE',  ( 0.000000000000000000, 0.000000000000000000, 637.0000000000000000 ) ) ;
#125 = CARTESIAN_POINT ( 'NONE',  ( 0.000000000000000000, 0.000000000000000000, 637.0000000000000000 ) ) ;
#126 = CARTESIAN_POINT ( 'NONE',  ( 0.000000000000000000, 0.000000000000000000, 7.000000000000000000 ) ) ;
#127 = SECURITY_CLASSIFICATION ( '', '', #275 ) ;
#128 = DIRECTION ( 'NONE',  ( 1.000000000000000000, 0.000000000000000000, -0.000000000000000000 ) ) ;
#129 = VERTEX_POINT ( 'NONE', #239 ) ;
#130 = CC_DESIGN_PERSON_AND_ORGANIZATION_ASSIGNMENT ( #149, #179, ( #28 ) ) ;
#131 = COORDINATED_UNIVERSAL_TIME_OFFSET ( 1, 0, .AHEAD. ) ;
#132 = ORIENTED_EDGE ( 'NONE', *, *, #98, .F. ) ;
#133 = COORDINATED_UNIVERSAL_TIME_OFFSET ( 1, 0, .AHEAD. ) ;
#134 = AXIS2_PLACEMENT_3D ( 'NONE', #69, #243, #148 ) ;
#135 = CC_DESIGN_APPROVAL ( #145, ( #242 ) ) ;
#136 = FACE_OUTER_BOUND ( 'NONE', #154, .T. ) ;
#137 = EDGE_LOOP ( 'NONE', ( #84, #66 ) ) ;
#138 = PERSON ( 'NEURÈENÝ', 'NEURÈENÝ', 'NEURÈENÝ', ('NEURÈENÝ'), ('NEURÈENÝ'), ('NEURÈENÝ') ) ;
#139 = CARTESIAN_POINT ( 'NONE',  ( 0.000000000000000000, 0.000000000000000000, 637.0000000000000000 ) ) ;
#140 = DIRECTION ( 'NONE',  ( 1.000000000000000000, 0.000000000000000000, -0.000000000000000000 ) ) ;
#141 = AXIS2_PLACEMENT_3D ( 'NONE', #143, #235, #169 ) ;
#142 = EDGE_LOOP ( 'NONE', ( #79, #115, #306, #39 ) ) ;
#143 = CARTESIAN_POINT ( 'NONE',  ( 0.000000000000000000, 0.000000000000000000, 637.0000000000000000 ) ) ;
#144 = DIRECTION ( 'NONE',  ( -0.000000000000000000, -0.000000000000000000, -1.000000000000000000 ) ) ;
#145 = APPROVAL ( #108, 'NEURÈENÝ' ) ;
#146 = CARTESIAN_POINT ( 'NONE',  ( -6.250000000000000000, 0.000000000000000000, 637.0000000000000000 ) ) ;
#147 = FACE_OUTER_BOUND ( 'NONE', #111, .T. ) ;
#148 = DIRECTION ( 'NONE',  ( -1.000000000000000000, 1.224646799147353454E-16, 0.000000000000000000 ) ) ;
#149 = PERSON_AND_ORGANIZATION ( #138, #260 ) ;
#150 = EDGE_LOOP ( 'NONE', ( #88, #163, #121, #250 ) ) ;
#151 = PERSON_AND_ORGANIZATION_ROLE ( 'design_supplier' ) ;
#152 = VERTEX_POINT ( 'NONE', #240 ) ;
#153 = AXIS2_PLACEMENT_3D ( 'NONE', #124, #221, #267 ) ;
#154 = EDGE_LOOP ( 'NONE', ( #132, #158, #60, #280 ) ) ;
#155 = PERSON_AND_ORGANIZATION ( #138, #260 ) ;
#156 = EDGE_LOOP ( 'NONE', ( #256, #67, #186, #299 ) ) ;
#157 = SHAPE_DEFINITION_REPRESENTATION ( #97, #118 ) ;
#158 = ORIENTED_EDGE ( 'NONE', *, *, #40, .T. ) ;
#159 = APPROVAL_DATE_TIME ( #183, #291 ) ;
#160 = VERTEX_POINT ( 'NONE', #71 ) ;
#161 = VECTOR ( 'NONE', #238, 1000.000000000000000 ) ;
#162 = PRODUCT_DEFINITION ( 'NEZNÁMÝ', '', #242, #43 ) ;
#163 = ORIENTED_EDGE ( 'NONE', *, *, #75, .F. ) ;
#164 = VERTEX_POINT ( 'NONE', #20 ) ;
#165 = CARTESIAN_POINT ( 'NONE',  ( 6.250000000000000000, 7.654042494670957606E-16, 637.0000000000000000 ) ) ;
#166 = CC_DESIGN_SECURITY_CLASSIFICATION ( #127, ( #242 ) ) ;
#167 = CC_DESIGN_DATE_AND_TIME_ASSIGNMENT ( #206, #254, ( #127 ) ) ;
#168 = DIRECTION ( 'NONE',  ( 1.000000000000000000, 0.000000000000000000, 0.000000000000000000 ) ) ;
#169 = DIRECTION ( 'NONE',  ( 1.000000000000000000, 0.000000000000000000, -0.000000000000000000 ) ) ;
#170 = CARTESIAN_POINT ( 'NONE',  ( 0.000000000000000000, 0.000000000000000000, 7.199999999999984190 ) ) ;
#171 = CIRCLE ( 'NONE', #237, 9.000000000000000000 ) ;
#172 = EDGE_CURVE ( 'NONE', #178, #164, #270, .T. ) ;
#173 = CYLINDRICAL_SURFACE ( 'NONE', #223, 9.000000000000000000 ) ;
#174 = DIRECTION ( 'NONE',  ( -1.000000000000000000, 0.000000000000000000, 0.000000000000000000 ) ) ;
#175 = CIRCLE ( 'NONE', #21, 6.450000000000000178 ) ;
#176 = LOCAL_TIME ( 11, 27, 59.00000000000000000, #30 ) ;
#177 = DIRECTION ( 'NONE',  ( 1.000000000000000000, 0.000000000000000000, 0.000000000000000000 ) ) ;
#178 = VERTEX_POINT ( 'NONE', #45 ) ;
#179 = PERSON_AND_ORGANIZATION_ROLE ( 'design_owner' ) ;
#180 = ORIENTED_EDGE ( 'NONE', *, *, #56, .F. ) ;
#181 = DIRECTION ( 'NONE',  ( 1.000000000000000000, 0.000000000000000000, 0.000000000000000000 ) ) ;
#182 = DATE_AND_TIME ( #9, #307 ) ;
#183 = DATE_AND_TIME ( #34, #296 ) ;
#184 = CC_DESIGN_PERSON_AND_ORGANIZATION_ASSIGNMENT ( #294, #273, ( #242 ) ) ;
#185 = FACE_OUTER_BOUND ( 'NONE', #252, .T. ) ;
#186 = ORIENTED_EDGE ( 'NONE', *, *, #198, .T. ) ;
#187 = DIRECTION ( 'NONE',  ( 0.000000000000000000, 0.000000000000000000, 1.000000000000000000 ) ) ;
#188 = CARTESIAN_POINT ( 'NONE',  ( 0.000000000000000000, 0.000000000000000000, 7.000000000000000000 ) ) ;
#189 = VECTOR ( 'NONE', #259, 1000.000000000000000 ) ;
#190 = LINE ( 'NONE', #165, #65 ) ;
#191 = APPROVAL_PERSON_ORGANIZATION ( #5, #145, #202 ) ;
#192 = DIRECTION ( 'NONE',  ( -0.000000000000000000, -0.000000000000000000, -1.000000000000000000 ) ) ;
#193 = EDGE_CURVE ( 'NONE', #178, #12, #195, .T. ) ;
#194 = DIRECTION ( 'NONE',  ( 1.000000000000000000, 0.000000000000000000, 0.000000000000000000 ) ) ;
#195 = CIRCLE ( 'NONE', #274, 6.250000000000000000 ) ;
#196 = FACE_OUTER_BOUND ( 'NONE', #156, .T. ) ;
#197 = DIRECTION ( 'NONE',  ( 0.000000000000000000, 0.000000000000000000, 1.000000000000000000 ) ) ;
#198 = EDGE_CURVE ( 'NONE', #120, #12, #262, .T. ) ;
#199 = DATE_TIME_ROLE ( 'creation_date' ) ;
#200 = TOROIDAL_SURFACE ( 'NONE', #112, 6.450000000000000178, 0.2000000000000000111 ) ;
#201 = COORDINATED_UNIVERSAL_TIME_OFFSET ( 1, 0, .AHEAD. ) ;
#202 = APPROVAL_ROLE ( '' ) ;
#203 = CC_DESIGN_DATE_AND_TIME_ASSIGNMENT ( #182, #199, ( #162 ) ) ;
#204 = DATE_AND_TIME ( #293, #114 ) ;
#205 = APPROVAL_PERSON_ORGANIZATION ( #62, #291, #61 ) ;
#206 = DATE_AND_TIME ( #298, #176 ) ;
#207 = ORIENTED_EDGE ( 'NONE', *, *, #13, .T. ) ;
#208 = DIRECTION ( 'NONE',  ( 0.000000000000000000, 0.000000000000000000, 1.000000000000000000 ) ) ;
#209 = CARTESIAN_POINT ( 'NONE',  ( 0.000000000000000000, 0.000000000000000000, 0.000000000000000000 ) ) ;
#210 = CYLINDRICAL_SURFACE ( 'NONE', #31, 9.000000000000000000 ) ;
#211 = DIRECTION ( 'NONE',  ( 1.000000000000000000, 0.000000000000000000, 0.000000000000000000 ) ) ;
#212 = AXIS2_PLACEMENT_3D ( 'NONE', #170, #197, #218 ) ;
#213 = DIRECTION ( 'NONE',  ( 0.000000000000000000, 0.000000000000000000, 1.000000000000000000 ) ) ;
#214 = AXIS2_PLACEMENT_3D ( 'NONE', #139, #261, #44 ) ;
#215 = ADVANCED_FACE ( 'NONE', ( #263 ), #200, .F. ) ;
#216 = DIRECTION ( 'NONE',  ( 0.000000000000000000, -1.000000000000000000, 0.000000000000000000 ) ) ;
#217 = EDGE_CURVE ( 'NONE', #129, #164, #52, .T. ) ;
#218 = DIRECTION ( 'NONE',  ( 1.000000000000000000, 0.000000000000000000, 0.000000000000000000 ) ) ;
#219 = CYLINDRICAL_SURFACE ( 'NONE', #153, 6.250000000000000000 ) ;
#220 = APPLICATION_CONTEXT ( 'configuration controlled 3d designs of mechanical parts and assemblies' ) ;
#221 = DIRECTION ( 'NONE',  ( -0.000000000000000000, -0.000000000000000000, -1.000000000000000000 ) ) ;
#222 = ORIENTED_EDGE ( 'NONE', *, *, #75, .T. ) ;
#223 = AXIS2_PLACEMENT_3D ( 'NONE', #96, #192, #174 ) ;
#224 = CC_DESIGN_PERSON_AND_ORGANIZATION_ASSIGNMENT ( #55, #151, ( #242 ) ) ;
#225 =( NAMED_UNIT ( * ) SI_UNIT ( $, .STERADIAN. ) SOLID_ANGLE_UNIT ( ) );
#226 = ORIENTED_EDGE ( 'NONE', *, *, #92, .T. ) ;
#227 = APPROVAL_DATE_TIME ( #29, #104 ) ;
#228 = AXIS2_PLACEMENT_3D ( 'NONE', #27, #70, #128 ) ;
#229 = DIRECTION ( 'NONE',  ( 0.000000000000000000, 0.000000000000000000, 1.000000000000000000 ) ) ;
#230 = CARTESIAN_POINT ( 'NONE',  ( -6.250000000000000000, 0.000000000000000000, 7.199999999999984190 ) ) ;
#231 = DIRECTION ( 'NONE',  ( -0.000000000000000000, -0.000000000000000000, -1.000000000000000000 ) ) ;
#232 = PRODUCT_RELATED_PRODUCT_CATEGORY ( 'detail', '', ( #28 ) ) ;
#233 = VERTEX_POINT ( 'NONE', #25 ) ;
#234 = DIRECTION ( 'NONE',  ( -1.000000000000000000, 0.000000000000000000, 0.000000000000000000 ) ) ;
#235 = DIRECTION ( 'NONE',  ( 0.000000000000000000, 0.000000000000000000, 1.000000000000000000 ) ) ;
#236 = PLANE ( 'NONE',  #141 ) ;
#237 = AXIS2_PLACEMENT_3D ( 'NONE', #209, #208, #211 ) ;
#238 = DIRECTION ( 'NONE',  ( -0.000000000000000000, -0.000000000000000000, -1.000000000000000000 ) ) ;
#239 = CARTESIAN_POINT ( 'NONE',  ( -6.450000000000000178, 7.898971854500428692E-16, 6.999999999999992006 ) ) ;
#240 = CARTESIAN_POINT ( 'NONE',  ( -9.000000000000000000, 0.000000000000000000, 0.000000000000000000 ) ) ;
#241 = CC_DESIGN_PERSON_AND_ORGANIZATION_ASSIGNMENT ( #85, #247, ( #127 ) ) ;
#242 = PRODUCT_DEFINITION_FORMATION_WITH_SPECIFIED_SOURCE ( 'LIBOVOLNÝ', '', #28, .NOT_KNOWN. ) ;
#243 = DIRECTION ( 'NONE',  ( 1.224646799147353207E-16, 1.000000000000000000, -0.000000000000000000 ) ) ;
#244 = ORIENTED_EDGE ( 'NONE', *, *, #264, .F. ) ;
#245 = CALENDAR_DATE ( 2022, 20, 6 ) ;
#246 = ORIENTED_EDGE ( 'NONE', *, *, #172, .F. ) ;
#247 = PERSON_AND_ORGANIZATION_ROLE ( 'classification_officer' ) ;
#248 = DIRECTION ( 'NONE',  ( 0.000000000000000000, 0.000000000000000000, 1.000000000000000000 ) ) ;
#249 = PERSON_AND_ORGANIZATION_ROLE ( 'creator' ) ;
#250 = ORIENTED_EDGE ( 'NONE', *, *, #56, .T. ) ;
#251 = ADVANCED_FACE ( 'NONE', ( #23 ), #236, .T. ) ;
#252 = EDGE_LOOP ( 'NONE', ( #222, #226 ) ) ;
#253 = AXIS2_PLACEMENT_3D ( 'NONE', #100, #292, #74 ) ;
#254 = DATE_TIME_ROLE ( 'classification_date' ) ;
#255 = AXIS2_PLACEMENT_3D ( 'NONE', #188, #63, #284 ) ;
#256 = ORIENTED_EDGE ( 'NONE', *, *, #40, .F. ) ;
#257 = DIRECTION ( 'NONE',  ( -0.000000000000000000, -0.000000000000000000, -1.000000000000000000 ) ) ;
#258 = ADVANCED_FACE ( 'NONE', ( #22 ), #10, .F. ) ;
#259 = DIRECTION ( 'NONE',  ( -0.000000000000000000, -0.000000000000000000, -1.000000000000000000 ) ) ;
#260 = ORGANIZATION ( 'NEURÈENÝ', 'NEURÈENÝ', '' ) ;
#261 = DIRECTION ( 'NONE',  ( 0.000000000000000000, 0.000000000000000000, 1.000000000000000000 ) ) ;
#262 = LINE ( 'NONE', #46, #123 ) ;
#263 = FACE_OUTER_BOUND ( 'NONE', #142, .T. ) ;
#264 = EDGE_CURVE ( 'NONE', #160, #152, #266, .T. ) ;
#265 = CLOSED_SHELL ( 'NONE', ( #258, #103, #47, #282, #24, #287, #268, #251, #215 ) ) ;
#266 = LINE ( 'NONE', #49, #161 ) ;
#267 = DIRECTION ( 'NONE',  ( -1.000000000000000000, 0.000000000000000000, 0.000000000000000000 ) ) ;
#268 = ADVANCED_FACE ( 'NONE', ( #196 ), #290, .T. ) ;
#269 = CARTESIAN_POINT ( 'NONE',  ( 9.000000000000000000, 1.102182119232617714E-15, 7.000000000000000000 ) ) ;
#270 = CIRCLE ( 'NONE', #36, 0.1999999999999996503 ) ;
#271 = APPROVAL_PERSON_ORGANIZATION ( #155, #104, #106 ) ;
#272 = ORIENTED_EDGE ( 'NONE', *, *, #297, .T. ) ;
#273 = PERSON_AND_ORGANIZATION_ROLE ( 'creator' ) ;
#274 = AXIS2_PLACEMENT_3D ( 'NONE', #99, #122, #194 ) ;
#275 = SECURITY_CLASSIFICATION_LEVEL ( 'unclassified' ) ;
#276 = UNCERTAINTY_MEASURE_WITH_UNIT (LENGTH_MEASURE( 1.000000000000000082E-05 ), #78, 'distance_accuracy_value', 'NONE');
#277 = APPROVAL_STATUS ( 'not_yet_approved' ) ;
#278 = DIRECTION ( 'NONE',  ( 1.000000000000000000, 0.000000000000000000, 0.000000000000000000 ) ) ;
#279 = APPLICATION_CONTEXT ( 'configuration controlled 3d designs of mechanical parts and assemblies' ) ;
#280 = ORIENTED_EDGE ( 'NONE', *, *, #198, .F. ) ;
#281 = EDGE_CURVE ( 'NONE', #120, #81, #285, .T. ) ;
#282 = ADVANCED_FACE ( 'NONE', ( #73 ), #173, .T. ) ;
#283 = ORIENTED_EDGE ( 'NONE', *, *, #19, .T. ) ;
#284 = DIRECTION ( 'NONE',  ( 1.000000000000000000, 0.000000000000000000, 0.000000000000000000 ) ) ;
#285 = CIRCLE ( 'NONE', #253, 6.250000000000000000 ) ;
#286 = VERTEX_POINT ( 'NONE', #269 ) ;
#287 = ADVANCED_FACE ( 'NONE', ( #147 ), #288, .F. ) ;
#288 = PLANE ( 'NONE',  #228 ) ;
#289 = CIRCLE ( 'NONE', #214, 6.250000000000000000 ) ;
#290 = CYLINDRICAL_SURFACE ( 'NONE', #77, 6.250000000000000000 ) ;
#291 = APPROVAL ( #277, 'NEURÈENÝ' ) ;
#292 = DIRECTION ( 'NONE',  ( 0.000000000000000000, 0.000000000000000000, 1.000000000000000000 ) ) ;
#293 = CALENDAR_DATE ( 2022, 20, 6 ) ;
#294 = PERSON_AND_ORGANIZATION ( #138, #260 ) ;
#295 = ORIENTED_EDGE ( 'NONE', *, *, #82, .T. ) ;
#296 = LOCAL_TIME ( 11, 27, 59.00000000000000000, #87 ) ;
#297 = EDGE_CURVE ( 'NONE', #12, #129, #95, .T. ) ;
#298 = CALENDAR_DATE ( 2022, 20, 6 ) ;
#299 = ORIENTED_EDGE ( 'NONE', *, *, #300, .T. ) ;
#300 = EDGE_CURVE ( 'NONE', #12, #178, #90, .T. ) ;
#301 = ORIENTED_EDGE ( 'NONE', *, *, #82, .F. ) ;
#302 = AXIS2_PLACEMENT_3D ( 'NONE', #305, #229, #140 ) ;
#303 = PLANE ( 'NONE',  #302 ) ;
#304 = MANIFOLD_SOLID_BREP ( 'Zaoblit1', #265 ) ;
#305 = CARTESIAN_POINT ( 'NONE',  ( 0.000000000000000000, 0.000000000000000000, 7.000000000000000000 ) ) ;
#306 = ORIENTED_EDGE ( 'NONE', *, *, #172, .T. ) ;
#307 = LOCAL_TIME ( 11, 27, 59.00000000000000000, #131 ) ;
ENDSEC;
END-ISO-10303-21;
