ISO-10303-21;
HEADER;
FILE_DESCRIPTION (( 'STEP AP203' ),
    '1' );
FILE_NAME ('5b89.STEP',
    '2022-06-20T09:23:47',
    ( '' ),
    ( '' ),
    'SwSTEP 2.0',
    'SolidWorks 2019',
    '' );
FILE_SCHEMA (( 'CONFIG_CONTROL_DESIGN' ));
ENDSEC;

DATA;
#1 = PERSON_AND_ORGANIZATION_ROLE ( 'design_supplier' ) ;
#2 = EDGE_LOOP ( 'NONE', ( #94, #196, #275, #235 ) ) ;
#3 = DIRECTION ( 'NONE',  ( 0.000000000000000000, 0.000000000000000000, 1.000000000000000000 ) ) ;
#4 = DIRECTION ( 'NONE',  ( 1.000000000000000000, 0.000000000000000000, 0.000000000000000000 ) ) ;
#5 = SECURITY_CLASSIFICATION_LEVEL ( 'unclassified' ) ;
#6 = ORIENTED_EDGE ( 'NONE', *, *, #227, .F. ) ;
#7 = CC_DESIGN_PERSON_AND_ORGANIZATION_ASSIGNMENT ( #255, #43, ( #18 ) ) ;
#8 = CARTESIAN_POINT ( 'NONE',  ( -11.00000000000000000, 0.000000000000000000, 7.000000000000000000 ) ) ;
#9 = AXIS2_PLACEMENT_3D ( 'NONE', #260, #48, #79 ) ;
#10 = CARTESIAN_POINT ( 'NONE',  ( -8.200000000000001066, 1.004210375300829674E-15, 7.199999999999984190 ) ) ;
#11 = CALENDAR_DATE ( 2022, 20, 6 ) ;
#12 = CARTESIAN_POINT ( 'NONE',  ( 8.000000000000000000, 9.797174393178825657E-16, 407.0000000000000000 ) ) ;
#13 = EDGE_CURVE ( 'NONE', #167, #144, #305, .T. ) ;
#14 = FACE_OUTER_BOUND ( 'NONE', #56, .T. ) ;
#15 = DIRECTION ( 'NONE',  ( 1.000000000000000000, 0.000000000000000000, 0.000000000000000000 ) ) ;
#16 = AXIS2_PLACEMENT_3D ( 'NONE', #64, #62, #15 ) ;
#17 = VECTOR ( 'NONE', #222, 1000.000000000000000 ) ;
#18 = PRODUCT_DEFINITION ( 'NEZNÁMÝ', '', #102, #254 ) ;
#19 = APPLICATION_CONTEXT ( 'configuration controlled 3d designs of mechanical parts and assemblies' ) ;
#20 = DIRECTION ( 'NONE',  ( 0.000000000000000000, 0.000000000000000000, 1.000000000000000000 ) ) ;
#21 = DATE_TIME_ROLE ( 'creation_date' ) ;
#22 = EDGE_CURVE ( 'NONE', #143, #167, #198, .T. ) ;
#23 = PERSON_AND_ORGANIZATION ( #158, #115 ) ;
#24 = VERTEX_POINT ( 'NONE', #30 ) ;
#25 = AXIS2_PLACEMENT_3D ( 'NONE', #193, #104, #4 ) ;
#26 = ORIENTED_EDGE ( 'NONE', *, *, #139, .T. ) ;
#27 = CYLINDRICAL_SURFACE ( 'NONE', #76, 11.00000000000000000 ) ;
#28 = FACE_OUTER_BOUND ( 'NONE', #232, .T. ) ;
#29 = AXIS2_PLACEMENT_3D ( 'NONE', #216, #3, #169 ) ;
#30 = CARTESIAN_POINT ( 'NONE',  ( 8.000000000000000000, 9.797174393178825657E-16, 407.0000000000000000 ) ) ;
#31 = CIRCLE ( 'NONE', #82, 8.000000000000000000 ) ;
#32 = CC_DESIGN_PERSON_AND_ORGANIZATION_ASSIGNMENT ( #215, #176, ( #262 ) ) ;
#33 = EDGE_CURVE ( 'NONE', #34, #238, #256, .T. ) ;
#34 = VERTEX_POINT ( 'NONE', #221 ) ;
#35 = DIRECTION ( 'NONE',  ( 0.000000000000000000, 0.000000000000000000, 1.000000000000000000 ) ) ;
#36 = DATE_AND_TIME ( #171, #95 ) ;
#37 = CARTESIAN_POINT ( 'NONE',  ( -8.000000000000000000, 0.000000000000000000, 7.199999999999984190 ) ) ;
#38 = CARTESIAN_POINT ( 'NONE',  ( 0.000000000000000000, 0.000000000000000000, 0.000000000000000000 ) ) ;
#39 = DIRECTION ( 'NONE',  ( -1.000000000000000000, 1.224646799147353207E-16, 0.000000000000000000 ) ) ;
#40 = PERSON_AND_ORGANIZATION_ROLE ( 'design_owner' ) ;
#41 = APPROVAL_ROLE ( '' ) ;
#42 = ORIENTED_EDGE ( 'NONE', *, *, #282, .F. ) ;
#43 = PERSON_AND_ORGANIZATION_ROLE ( 'creator' ) ;
#44 = ADVANCED_FACE ( 'NONE', ( #98, #77 ), #284, .T. ) ;
#45 = CIRCLE ( 'NONE', #218, 11.00000000000000000 ) ;
#46 = AXIS2_PLACEMENT_3D ( 'NONE', #38, #223, #109 ) ;
#47 = PERSON_AND_ORGANIZATION_ROLE ( 'creator' ) ;
#48 = DIRECTION ( 'NONE',  ( -0.000000000000000000, -0.000000000000000000, -1.000000000000000000 ) ) ;
#49 = AXIS2_PLACEMENT_3D ( 'NONE', #226, #205, #293 ) ;
#50 = FACE_OUTER_BOUND ( 'NONE', #286, .T. ) ;
#51 = ORIENTED_EDGE ( 'NONE', *, *, #97, .T. ) ;
#52 = ADVANCED_FACE ( 'NONE', ( #50 ), #166, .T. ) ;
#53 = ORIENTED_EDGE ( 'NONE', *, *, #282, .T. ) ;
#54 = ADVANCED_FACE ( 'NONE', ( #142 ), #27, .T. ) ;
#55 = AXIS2_PLACEMENT_3D ( 'NONE', #110, #131, #270 ) ;
#56 = EDGE_LOOP ( 'NONE', ( #283, #6 ) ) ;
#57 = AXIS2_PLACEMENT_3D ( 'NONE', #247, #105, #250 ) ;
#58 = CARTESIAN_POINT ( 'NONE',  ( 11.00000000000000000, 1.347111479062088405E-15, 7.000000000000000000 ) ) ;
#59 = APPROVAL_STATUS ( 'not_yet_approved' ) ;
#60 = CARTESIAN_POINT ( 'NONE',  ( 0.000000000000000000, 0.000000000000000000, 407.0000000000000000 ) ) ;
#61 = COORDINATED_UNIVERSAL_TIME_OFFSET ( 1, 0, .AHEAD. ) ;
#62 = DIRECTION ( 'NONE',  ( 0.000000000000000000, 0.000000000000000000, 1.000000000000000000 ) ) ;
#63 = PLANE ( 'NONE',  #46 ) ;
#64 = CARTESIAN_POINT ( 'NONE',  ( 0.000000000000000000, 0.000000000000000000, 7.199999999999984190 ) ) ;
#65 = EDGE_CURVE ( 'NONE', #236, #75, #191, .T. ) ;
#66 = CARTESIAN_POINT ( 'NONE',  ( 0.000000000000000000, 0.000000000000000000, 0.000000000000000000 ) ) ;
#67 = ORIENTED_EDGE ( 'NONE', *, *, #132, .F. ) ;
#68 = PERSON_AND_ORGANIZATION ( #158, #115 ) ;
#69 =( NAMED_UNIT ( * ) SI_UNIT ( $, .STERADIAN. ) SOLID_ANGLE_UNIT ( ) );
#70 = APPROVAL_DATE_TIME ( #206, #147 ) ;
#71 = APPROVAL_PERSON_ORGANIZATION ( #192, #147, #303 ) ;
#72 = DIRECTION ( 'NONE',  ( 0.000000000000000000, 0.000000000000000000, 1.000000000000000000 ) ) ;
#73 = CARTESIAN_POINT ( 'NONE',  ( 0.000000000000000000, 0.000000000000000000, 7.000000000000000000 ) ) ;
#74 = ADVANCED_FACE ( 'NONE', ( #28 ), #292, .T. ) ;
#75 = VERTEX_POINT ( 'NONE', #224 ) ;
#76 = AXIS2_PLACEMENT_3D ( 'NONE', #170, #140, #100 ) ;
#77 = FACE_OUTER_BOUND ( 'NONE', #173, .T. ) ;
#78 = EDGE_CURVE ( 'NONE', #24, #263, #243, .T. ) ;
#79 = DIRECTION ( 'NONE',  ( -1.000000000000000000, 0.000000000000000000, 0.000000000000000000 ) ) ;
#80 = EDGE_LOOP ( 'NONE', ( #42, #187, #89, #185 ) ) ;
#81 = AXIS2_PLACEMENT_3D ( 'NONE', #73, #287, #261 ) ;
#82 = AXIS2_PLACEMENT_3D ( 'NONE', #252, #72, #208 ) ;
#83 = CARTESIAN_POINT ( 'NONE',  ( 0.000000000000000000, 0.000000000000000000, 0.000000000000000000 ) ) ;
#84 = CARTESIAN_POINT ( 'NONE',  ( 0.000000000000000000, 0.000000000000000000, 7.199999999999984190 ) ) ;
#85 = DIRECTION ( 'NONE',  ( 1.000000000000000000, 0.000000000000000000, 0.000000000000000000 ) ) ;
#86 = AXIS2_PLACEMENT_3D ( 'NONE', #83, #175, #85 ) ;
#87 = DIRECTION ( 'NONE',  ( -0.000000000000000000, -0.000000000000000000, -1.000000000000000000 ) ) ;
#88 = DIRECTION ( 'NONE',  ( 1.000000000000000000, 0.000000000000000000, 0.000000000000000000 ) ) ;
#89 = ORIENTED_EDGE ( 'NONE', *, *, #132, .T. ) ;
#90 = ORIENTED_EDGE ( 'NONE', *, *, #65, .T. ) ;
#91 = CIRCLE ( 'NONE', #57, 0.1999999999999996503 ) ;
#92 =( NAMED_UNIT ( * ) PLANE_ANGLE_UNIT ( ) SI_UNIT ( $, .RADIAN. ) );
#93 = CALENDAR_DATE ( 2022, 20, 6 ) ;
#94 = ORIENTED_EDGE ( 'NONE', *, *, #294, .F. ) ;
#95 = LOCAL_TIME ( 11, 23, 47.00000000000000000, #61 ) ;
#96 = ADVANCED_FACE ( 'NONE', ( #157 ), #107, .T. ) ;
#97 = EDGE_CURVE ( 'NONE', #24, #75, #180, .T. ) ;
#98 = FACE_BOUND ( 'NONE', #253, .T. ) ;
#99 = ORIENTED_EDGE ( 'NONE', *, *, #22, .T. ) ;
#100 = DIRECTION ( 'NONE',  ( -1.000000000000000000, 0.000000000000000000, 0.000000000000000000 ) ) ;
#101 = ADVANCED_FACE ( 'NONE', ( #108 ), #204, .F. ) ;
#102 = PRODUCT_DEFINITION_FORMATION_WITH_SPECIFIED_SOURCE ( 'LIBOVOLNÝ', '', #125, .NOT_KNOWN. ) ;
#103 = CARTESIAN_POINT ( 'NONE',  ( 0.000000000000000000, 0.000000000000000000, 7.000000000000000000 ) ) ;
#104 = DIRECTION ( 'NONE',  ( 0.000000000000000000, 0.000000000000000000, 1.000000000000000000 ) ) ;
#105 = DIRECTION ( 'NONE',  ( 0.000000000000000000, -1.000000000000000000, 0.000000000000000000 ) ) ;
#106 = CIRCLE ( 'NONE', #86, 11.00000000000000000 ) ;
#107 = CYLINDRICAL_SURFACE ( 'NONE', #55, 8.000000000000000000 ) ;
#108 = FACE_OUTER_BOUND ( 'NONE', #217, .T. ) ;
#109 = DIRECTION ( 'NONE',  ( 1.000000000000000000, 0.000000000000000000, -0.000000000000000000 ) ) ;
#110 = CARTESIAN_POINT ( 'NONE',  ( 0.000000000000000000, 0.000000000000000000, 407.0000000000000000 ) ) ;
#111 = CIRCLE ( 'NONE', #251, 8.000000000000000000 ) ;
#112 = COORDINATED_UNIVERSAL_TIME_OFFSET ( 1, 0, .AHEAD. ) ;
#113 = COORDINATED_UNIVERSAL_TIME_OFFSET ( 1, 0, .AHEAD. ) ;
#114 = AXIS2_PLACEMENT_3D ( 'NONE', #298, #35, #130 ) ;
#115 = ORGANIZATION ( 'NEURÈENÝ', 'NEURÈENÝ', '' ) ;
#116 = PRODUCT_RELATED_PRODUCT_CATEGORY ( 'detail', '', ( #125 ) ) ;
#117 = ORIENTED_EDGE ( 'NONE', *, *, #78, .T. ) ;
#118 = CIRCLE ( 'NONE', #122, 11.00000000000000000 ) ;
#119 = EDGE_LOOP ( 'NONE', ( #146, #121, #99, #123 ) ) ;
#120 = VERTEX_POINT ( 'NONE', #58 ) ;
#121 = ORIENTED_EDGE ( 'NONE', *, *, #126, .F. ) ;
#122 = AXIS2_PLACEMENT_3D ( 'NONE', #183, #136, #88 ) ;
#123 = ORIENTED_EDGE ( 'NONE', *, *, #13, .T. ) ;
#124 = LINE ( 'NONE', #202, #17 ) ;
#125 = PRODUCT ( '5b89', '5b89', '', ( #138 ) ) ;
#126 = EDGE_CURVE ( 'NONE', #143, #120, #45, .T. ) ;
#127 = DIRECTION ( 'NONE',  ( -1.000000000000000000, 0.000000000000000000, 0.000000000000000000 ) ) ;
#128 = DATE_TIME_ROLE ( 'classification_date' ) ;
#129 = CIRCLE ( 'NONE', #228, 8.200000000000001066 ) ;
#130 = DIRECTION ( 'NONE',  ( 1.000000000000000000, 0.000000000000000000, 0.000000000000000000 ) ) ;
#131 = DIRECTION ( 'NONE',  ( -0.000000000000000000, -0.000000000000000000, -1.000000000000000000 ) ) ;
#132 = EDGE_CURVE ( 'NONE', #75, #34, #91, .T. ) ;
#133 = CARTESIAN_POINT ( 'NONE',  ( 0.000000000000000000, 0.000000000000000000, 7.000000000000000000 ) ) ;
#134 = APPLICATION_CONTEXT ( 'configuration controlled 3d designs of mechanical parts and assemblies' ) ;
#135 = DIRECTION ( 'NONE',  ( 1.000000000000000000, 0.000000000000000000, 0.000000000000000000 ) ) ;
#136 = DIRECTION ( 'NONE',  ( 0.000000000000000000, 0.000000000000000000, 1.000000000000000000 ) ) ;
#137 = DIRECTION ( 'NONE',  ( -0.000000000000000000, -0.000000000000000000, -1.000000000000000000 ) ) ;
#138 = MECHANICAL_CONTEXT ( 'NONE', #134, 'mechanical' ) ;
#139 = EDGE_CURVE ( 'NONE', #263, #236, #124, .T. ) ;
#140 = DIRECTION ( 'NONE',  ( -0.000000000000000000, -0.000000000000000000, -1.000000000000000000 ) ) ;
#141 = AXIS2_PLACEMENT_3D ( 'NONE', #10, #296, #39 ) ;
#142 = FACE_OUTER_BOUND ( 'NONE', #119, .T. ) ;
#143 = VERTEX_POINT ( 'NONE', #8 ) ;
#144 = VERTEX_POINT ( 'NONE', #200 ) ;
#145 = SHAPE_DEFINITION_REPRESENTATION ( #149, #188 ) ;
#146 = ORIENTED_EDGE ( 'NONE', *, *, #172, .F. ) ;
#147 = APPROVAL ( #210, 'NEURÈENÝ' ) ;
#148 = LINE ( 'NONE', #199, #240 ) ;
#149 = PRODUCT_DEFINITION_SHAPE ( 'NONE', 'NONE',  #18 ) ;
#150 = DIRECTION ( 'NONE',  ( -0.000000000000000000, -0.000000000000000000, -1.000000000000000000 ) ) ;
#151 = VECTOR ( 'NONE', #87, 1000.000000000000000 ) ;
#152 = PERSON_AND_ORGANIZATION ( #158, #115 ) ;
#153 = ADVANCED_FACE ( 'NONE', ( #177 ), #154, .F. ) ;
#154 = TOROIDAL_SURFACE ( 'NONE', #209, 8.200000000000001066, 0.2000000000000000111 ) ;
#155 = DIRECTION ( 'NONE',  ( 0.000000000000000000, 0.000000000000000000, 1.000000000000000000 ) ) ;
#156 = APPROVAL_ROLE ( '' ) ;
#157 = FACE_OUTER_BOUND ( 'NONE', #285, .T. ) ;
#158 = PERSON ( 'NEURÈENÝ', 'NEURÈENÝ', 'NEURÈENÝ', ('NEURÈENÝ'), ('NEURÈENÝ'), ('NEURÈENÝ') ) ;
#159 = DIRECTION ( 'NONE',  ( 0.000000000000000000, 0.000000000000000000, 1.000000000000000000 ) ) ;
#160 = APPLICATION_PROTOCOL_DEFINITION ( 'international standard', 'config_control_design', 1994, #134 ) ;
#161 = CC_DESIGN_APPROVAL ( #259, ( #262 ) ) ;
#162 = PERSON_AND_ORGANIZATION ( #158, #115 ) ;
#163 = EDGE_CURVE ( 'NONE', #263, #24, #111, .T. ) ;
#164 =( LENGTH_UNIT ( ) NAMED_UNIT ( * ) SI_UNIT ( .MILLI., .METRE. ) );
#165 = ORIENTED_EDGE ( 'NONE', *, *, #126, .T. ) ;
#166 = CYLINDRICAL_SURFACE ( 'NONE', #9, 8.000000000000000000 ) ;
#167 = VERTEX_POINT ( 'NONE', #246 ) ;
#168 = AXIS2_PLACEMENT_3D ( 'NONE', #66, #20, #211 ) ;
#169 = DIRECTION ( 'NONE',  ( 1.000000000000000000, 0.000000000000000000, 0.000000000000000000 ) ) ;
#170 = CARTESIAN_POINT ( 'NONE',  ( 0.000000000000000000, 0.000000000000000000, 7.000000000000000000 ) ) ;
#171 = CALENDAR_DATE ( 2022, 20, 6 ) ;
#172 = EDGE_CURVE ( 'NONE', #120, #144, #148, .T. ) ;
#173 = EDGE_LOOP ( 'NONE', ( #165, #277 ) ) ;
#174 = APPROVAL_PERSON_ORGANIZATION ( #152, #259, #156 ) ;
#175 = DIRECTION ( 'NONE',  ( 0.000000000000000000, 0.000000000000000000, 1.000000000000000000 ) ) ;
#176 = PERSON_AND_ORGANIZATION_ROLE ( 'classification_officer' ) ;
#177 = FACE_OUTER_BOUND ( 'NONE', #80, .T. ) ;
#178 = DIRECTION ( 'NONE',  ( 1.000000000000000000, 0.000000000000000000, 0.000000000000000000 ) ) ;
#179 = CARTESIAN_POINT ( 'NONE',  ( 0.000000000000000000, 0.000000000000000000, 7.000000000000000000 ) ) ;
#180 = LINE ( 'NONE', #12, #151 ) ;
#181 = APPROVAL_DATE_TIME ( #278, #272 ) ;
#182 = ORIENTED_EDGE ( 'NONE', *, *, #163, .T. ) ;
#183 = CARTESIAN_POINT ( 'NONE',  ( 0.000000000000000000, 0.000000000000000000, 7.000000000000000000 ) ) ;
#184 = LOCAL_TIME ( 11, 23, 47.00000000000000000, #113 ) ;
#185 = ORIENTED_EDGE ( 'NONE', *, *, #302, .F. ) ;
#186 = CALENDAR_DATE ( 2022, 20, 6 ) ;
#187 = ORIENTED_EDGE ( 'NONE', *, *, #289, .F. ) ;
#188 = ADVANCED_BREP_SHAPE_REPRESENTATION ( '5b89', ( #233, #168 ), #297 ) ;
#189 = CC_DESIGN_PERSON_AND_ORGANIZATION_ASSIGNMENT ( #162, #40, ( #125 ) ) ;
#190 = APPROVAL_STATUS ( 'not_yet_approved' ) ;
#191 = CIRCLE ( 'NONE', #29, 8.000000000000000000 ) ;
#192 = PERSON_AND_ORGANIZATION ( #158, #115 ) ;
#193 = CARTESIAN_POINT ( 'NONE',  ( 0.000000000000000000, 0.000000000000000000, 0.000000000000000000 ) ) ;
#194 = CARTESIAN_POINT ( 'NONE',  ( -11.00000000000000000, 0.000000000000000000, 7.000000000000000000 ) ) ;
#195 = ORIENTED_EDGE ( 'NONE', *, *, #163, .F. ) ;
#196 = ORIENTED_EDGE ( 'NONE', *, *, #172, .T. ) ;
#197 = CC_DESIGN_PERSON_AND_ORGANIZATION_ASSIGNMENT ( #23, #1, ( #102 ) ) ;
#198 = LINE ( 'NONE', #194, #295 ) ;
#199 = CARTESIAN_POINT ( 'NONE',  ( 11.00000000000000000, 1.347111479062088405E-15, 7.000000000000000000 ) ) ;
#200 = CARTESIAN_POINT ( 'NONE',  ( 11.00000000000000000, 1.347111479062088405E-15, 0.000000000000000000 ) ) ;
#201 = APPROVAL_DATE_TIME ( #265, #259 ) ;
#202 = CARTESIAN_POINT ( 'NONE',  ( -8.000000000000000000, 0.000000000000000000, 407.0000000000000000 ) ) ;
#203 = CARTESIAN_POINT ( 'NONE',  ( -8.000000000000000000, 0.000000000000000000, 407.0000000000000000 ) ) ;
#204 = TOROIDAL_SURFACE ( 'NONE', #16, 8.200000000000001066, 0.2000000000000000111 ) ;
#205 = DIRECTION ( 'NONE',  ( 0.000000000000000000, 0.000000000000000000, 1.000000000000000000 ) ) ;
#206 = DATE_AND_TIME ( #93, #184 ) ;
#207 = AXIS2_PLACEMENT_3D ( 'NONE', #103, #264, #212 ) ;
#208 = DIRECTION ( 'NONE',  ( 1.000000000000000000, 0.000000000000000000, 0.000000000000000000 ) ) ;
#209 = AXIS2_PLACEMENT_3D ( 'NONE', #84, #290, #271 ) ;
#210 = APPROVAL_STATUS ( 'not_yet_approved' ) ;
#211 = DIRECTION ( 'NONE',  ( 1.000000000000000000, 0.000000000000000000, 0.000000000000000000 ) ) ;
#212 = DIRECTION ( 'NONE',  ( 1.000000000000000000, 0.000000000000000000, 0.000000000000000000 ) ) ;
#213 = AXIS2_PLACEMENT_3D ( 'NONE', #179, #242, #127 ) ;
#214 = ORIENTED_EDGE ( 'NONE', *, *, #78, .F. ) ;
#215 = PERSON_AND_ORGANIZATION ( #158, #115 ) ;
#216 = CARTESIAN_POINT ( 'NONE',  ( 0.000000000000000000, 0.000000000000000000, 7.199999999999984190 ) ) ;
#217 = EDGE_LOOP ( 'NONE', ( #279, #53, #241, #67 ) ) ;
#218 = AXIS2_PLACEMENT_3D ( 'NONE', #133, #159, #244 ) ;
#219 = CC_DESIGN_DATE_AND_TIME_ASSIGNMENT ( #230, #21, ( #18 ) ) ;
#220 = LOCAL_TIME ( 11, 23, 47.00000000000000000, #112 ) ;
#221 = CARTESIAN_POINT ( 'NONE',  ( 8.200000000000001066, 0.000000000000000000, 6.999999999999992006 ) ) ;
#222 = DIRECTION ( 'NONE',  ( -0.000000000000000000, -0.000000000000000000, -1.000000000000000000 ) ) ;
#223 = DIRECTION ( 'NONE',  ( 0.000000000000000000, 0.000000000000000000, 1.000000000000000000 ) ) ;
#224 = CARTESIAN_POINT ( 'NONE',  ( 8.000000000000000000, 9.797174393178825657E-16, 7.199999999999984190 ) ) ;
#225 = CYLINDRICAL_SURFACE ( 'NONE', #213, 11.00000000000000000 ) ;
#226 = CARTESIAN_POINT ( 'NONE',  ( 0.000000000000000000, 0.000000000000000000, 407.0000000000000000 ) ) ;
#227 = EDGE_CURVE ( 'NONE', #144, #167, #106, .T. ) ;
#228 = AXIS2_PLACEMENT_3D ( 'NONE', #229, #137, #135 ) ;
#229 = CARTESIAN_POINT ( 'NONE',  ( 0.000000000000000000, 0.000000000000000000, 7.000000000000000000 ) ) ;
#230 = DATE_AND_TIME ( #274, #291 ) ;
#231 = ORIENTED_EDGE ( 'NONE', *, *, #289, .T. ) ;
#232 = EDGE_LOOP ( 'NONE', ( #182, #117 ) ) ;
#233 = MANIFOLD_SOLID_BREP ( 'Zaoblit1', #234 ) ;
#234 = CLOSED_SHELL ( 'NONE', ( #101, #96, #237, #54, #44, #249, #52, #74, #153 ) ) ;
#235 = ORIENTED_EDGE ( 'NONE', *, *, #22, .F. ) ;
#236 = VERTEX_POINT ( 'NONE', #37 ) ;
#237 = ADVANCED_FACE ( 'NONE', ( #268 ), #225, .T. ) ;
#238 = VERTEX_POINT ( 'NONE', #273 ) ;
#239 = ORIENTED_EDGE ( 'NONE', *, *, #97, .F. ) ;
#240 = VECTOR ( 'NONE', #150, 1000.000000000000000 ) ;
#241 = ORIENTED_EDGE ( 'NONE', *, *, #33, .F. ) ;
#242 = DIRECTION ( 'NONE',  ( -0.000000000000000000, -0.000000000000000000, -1.000000000000000000 ) ) ;
#243 = CIRCLE ( 'NONE', #114, 8.000000000000000000 ) ;
#244 = DIRECTION ( 'NONE',  ( 1.000000000000000000, 0.000000000000000000, 0.000000000000000000 ) ) ;
#245 = COORDINATED_UNIVERSAL_TIME_OFFSET ( 1, 0, .AHEAD. ) ;
#246 = CARTESIAN_POINT ( 'NONE',  ( -11.00000000000000000, 0.000000000000000000, 0.000000000000000000 ) ) ;
#247 = CARTESIAN_POINT ( 'NONE',  ( 8.200000000000001066, 0.000000000000000000, 7.199999999999984190 ) ) ;
#248 = CC_DESIGN_PERSON_AND_ORGANIZATION_ASSIGNMENT ( #257, #47, ( #102 ) ) ;
#249 = ADVANCED_FACE ( 'NONE', ( #14 ), #63, .F. ) ;
#250 = DIRECTION ( 'NONE',  ( 0.000000000000000000, 0.000000000000000000, -1.000000000000000000 ) ) ;
#251 = AXIS2_PLACEMENT_3D ( 'NONE', #60, #155, #178 ) ;
#252 = CARTESIAN_POINT ( 'NONE',  ( 0.000000000000000000, 0.000000000000000000, 7.199999999999984190 ) ) ;
#253 = EDGE_LOOP ( 'NONE', ( #304, #307 ) ) ;
#254 = DESIGN_CONTEXT ( 'detailed design', #19, 'design' ) ;
#255 = PERSON_AND_ORGANIZATION ( #158, #115 ) ;
#256 = CIRCLE ( 'NONE', #207, 8.200000000000001066 ) ;
#257 = PERSON_AND_ORGANIZATION ( #158, #115 ) ;
#258 = CC_DESIGN_APPROVAL ( #272, ( #18 ) ) ;
#259 = APPROVAL ( #59, 'NEURÈENÝ' ) ;
#260 = CARTESIAN_POINT ( 'NONE',  ( 0.000000000000000000, 0.000000000000000000, 407.0000000000000000 ) ) ;
#261 = DIRECTION ( 'NONE',  ( 1.000000000000000000, 0.000000000000000000, -0.000000000000000000 ) ) ;
#262 = SECURITY_CLASSIFICATION ( '', '', #5 ) ;
#263 = VERTEX_POINT ( 'NONE', #203 ) ;
#264 = DIRECTION ( 'NONE',  ( -0.000000000000000000, -0.000000000000000000, -1.000000000000000000 ) ) ;
#265 = DATE_AND_TIME ( #11, #267 ) ;
#266 = DIRECTION ( 'NONE',  ( -0.000000000000000000, -0.000000000000000000, -1.000000000000000000 ) ) ;
#267 = LOCAL_TIME ( 11, 23, 47.00000000000000000, #245 ) ;
#268 = FACE_OUTER_BOUND ( 'NONE', #2, .T. ) ;
#269 = UNCERTAINTY_MEASURE_WITH_UNIT (LENGTH_MEASURE( 1.000000000000000082E-05 ), #164, 'distance_accuracy_value', 'NONE');
#270 = DIRECTION ( 'NONE',  ( -1.000000000000000000, 0.000000000000000000, 0.000000000000000000 ) ) ;
#271 = DIRECTION ( 'NONE',  ( 1.000000000000000000, 0.000000000000000000, 0.000000000000000000 ) ) ;
#272 = APPROVAL ( #190, 'NEURÈENÝ' ) ;
#273 = CARTESIAN_POINT ( 'NONE',  ( -8.200000000000001066, 1.004210375300829674E-15, 6.999999999999992006 ) ) ;
#274 = CALENDAR_DATE ( 2022, 20, 6 ) ;
#275 = ORIENTED_EDGE ( 'NONE', *, *, #227, .T. ) ;
#276 = CIRCLE ( 'NONE', #141, 0.2000000000000005107 ) ;
#277 = ORIENTED_EDGE ( 'NONE', *, *, #294, .T. ) ;
#278 = DATE_AND_TIME ( #186, #220 ) ;
#279 = ORIENTED_EDGE ( 'NONE', *, *, #65, .F. ) ;
#280 = CC_DESIGN_DATE_AND_TIME_ASSIGNMENT ( #36, #128, ( #262 ) ) ;
#281 = CC_DESIGN_SECURITY_CLASSIFICATION ( #262, ( #102 ) ) ;
#282 = EDGE_CURVE ( 'NONE', #236, #238, #276, .T. ) ;
#283 = ORIENTED_EDGE ( 'NONE', *, *, #13, .F. ) ;
#284 = PLANE ( 'NONE',  #81 ) ;
#285 = EDGE_LOOP ( 'NONE', ( #214, #51, #231, #288 ) ) ;
#286 = EDGE_LOOP ( 'NONE', ( #239, #195, #26, #90 ) ) ;
#287 = DIRECTION ( 'NONE',  ( 0.000000000000000000, 0.000000000000000000, 1.000000000000000000 ) ) ;
#288 = ORIENTED_EDGE ( 'NONE', *, *, #139, .F. ) ;
#289 = EDGE_CURVE ( 'NONE', #75, #236, #31, .T. ) ;
#290 = DIRECTION ( 'NONE',  ( 0.000000000000000000, 0.000000000000000000, 1.000000000000000000 ) ) ;
#291 = LOCAL_TIME ( 11, 23, 47.00000000000000000, #299 ) ;
#292 = PLANE ( 'NONE',  #49 ) ;
#293 = DIRECTION ( 'NONE',  ( 1.000000000000000000, 0.000000000000000000, -0.000000000000000000 ) ) ;
#294 = EDGE_CURVE ( 'NONE', #120, #143, #118, .T. ) ;
#295 = VECTOR ( 'NONE', #266, 1000.000000000000000 ) ;
#296 = DIRECTION ( 'NONE',  ( 1.224646799147353207E-16, 1.000000000000000000, -0.000000000000000000 ) ) ;
#297 =( GEOMETRIC_REPRESENTATION_CONTEXT ( 3 ) GLOBAL_UNCERTAINTY_ASSIGNED_CONTEXT ( ( #269 ) ) GLOBAL_UNIT_ASSIGNED_CONTEXT ( ( #164, #92, #69 ) ) REPRESENTATION_CONTEXT ( 'NONE', 'WORKASPACE' ) );
#298 = CARTESIAN_POINT ( 'NONE',  ( 0.000000000000000000, 0.000000000000000000, 407.0000000000000000 ) ) ;
#299 = COORDINATED_UNIVERSAL_TIME_OFFSET ( 1, 0, .AHEAD. ) ;
#300 = CC_DESIGN_APPROVAL ( #147, ( #102 ) ) ;
#301 = APPLICATION_PROTOCOL_DEFINITION ( 'international standard', 'config_control_design', 1994, #19 ) ;
#302 = EDGE_CURVE ( 'NONE', #238, #34, #129, .T. ) ;
#303 = APPROVAL_ROLE ( '' ) ;
#304 = ORIENTED_EDGE ( 'NONE', *, *, #33, .T. ) ;
#305 = CIRCLE ( 'NONE', #25, 11.00000000000000000 ) ;
#306 = APPROVAL_PERSON_ORGANIZATION ( #68, #272, #41 ) ;
#307 = ORIENTED_EDGE ( 'NONE', *, *, #302, .T. ) ;
ENDSEC;
END-ISO-10303-21;
