ISO-10303-21;
HEADER;
FILE_DESCRIPTION (( 'STEP AP203' ),
    '1' );
FILE_NAME ('16ae.STEP',
    '2022-06-20T10:05:42',
    ( '' ),
    ( '' ),
    'SwSTEP 2.0',
    'SolidWorks 2019',
    '' );
FILE_SCHEMA (( 'CONFIG_CONTROL_DESIGN' ));
ENDSEC;

DATA;
#1 = CARTESIAN_POINT ( 'NONE',  ( 0.000000000000000000, 0.000000000000000000, 3.000000000000000000 ) ) ;
#2 = AXIS2_PLACEMENT_3D ( 'NONE', #67, #172, #24 ) ;
#3 = CC_DESIGN_APPROVAL ( #217, ( #304 ) ) ;
#4 = CARTESIAN_POINT ( 'NONE',  ( 2.449999999999999734, 0.000000000000000000, 3.000000000000004441 ) ) ;
#5 = CARTESIAN_POINT ( 'NONE',  ( 4.000000000000000000, 4.898587196589412829E-16, 0.000000000000000000 ) ) ;
#6 = AXIS2_PLACEMENT_3D ( 'NONE', #86, #261, #300 ) ;
#7 = ORIENTED_EDGE ( 'NONE', *, *, #191, .F. ) ;
#8 = DESIGN_CONTEXT ( 'detailed design', #124, 'design' ) ;
#9 = ORIENTED_EDGE ( 'NONE', *, *, #85, .F. ) ;
#10 = ORIENTED_EDGE ( 'NONE', *, *, #286, .F. ) ;
#11 = ORIENTED_EDGE ( 'NONE', *, *, #224, .T. ) ;
#12 = VERTEX_POINT ( 'NONE', #302 ) ;
#13 = MECHANICAL_CONTEXT ( 'NONE', #249, 'mechanical' ) ;
#14 = DIRECTION ( 'NONE',  ( -1.000000000000000000, 0.000000000000000000, 0.000000000000000000 ) ) ;
#15 = CALENDAR_DATE ( 2022, 20, 6 ) ;
#16 = CC_DESIGN_PERSON_AND_ORGANIZATION_ASSIGNMENT ( #160, #117, ( #254 ) ) ;
#17 = DIRECTION ( 'NONE',  ( -0.000000000000000000, -0.000000000000000000, -1.000000000000000000 ) ) ;
#18 = APPROVAL_ROLE ( '' ) ;
#19 = DIRECTION ( 'NONE',  ( 1.000000000000000000, 0.000000000000000000, -0.000000000000000000 ) ) ;
#20 = ADVANCED_FACE ( 'NONE', ( #161 ), #205, .T. ) ;
#21 = EDGE_LOOP ( 'NONE', ( #196, #128, #94, #234 ) ) ;
#22 = APPROVAL_DATE_TIME ( #284, #108 ) ;
#23 = CARTESIAN_POINT ( 'NONE',  ( 0.000000000000000000, 0.000000000000000000, 3.000000000000000000 ) ) ;
#24 = DIRECTION ( 'NONE',  ( 1.000000000000000000, 0.000000000000000000, 0.000000000000000000 ) ) ;
#25 = CIRCLE ( 'NONE', #292, 2.449999999999999734 ) ;
#26 = CYLINDRICAL_SURFACE ( 'NONE', #293, 2.250000000000000000 ) ;
#27 = ADVANCED_FACE ( 'NONE', ( #275 ), #41, .T. ) ;
#28 = CC_DESIGN_APPROVAL ( #108, ( #112 ) ) ;
#29 = EDGE_LOOP ( 'NONE', ( #10, #243, #96, #305 ) ) ;
#30 = AXIS2_PLACEMENT_3D ( 'NONE', #84, #138, #251 ) ;
#31 = EDGE_LOOP ( 'NONE', ( #72, #116 ) ) ;
#32 = DIRECTION ( 'NONE',  ( 0.000000000000000000, 0.000000000000000000, 1.000000000000000000 ) ) ;
#33 = ORIENTED_EDGE ( 'NONE', *, *, #149, .T. ) ;
#34 = ORIENTED_EDGE ( 'NONE', *, *, #149, .F. ) ;
#35 = DIRECTION ( 'NONE',  ( 1.000000000000000000, 0.000000000000000000, 0.000000000000000000 ) ) ;
#36 = AXIS2_PLACEMENT_3D ( 'NONE', #1, #236, #173 ) ;
#37 = COORDINATED_UNIVERSAL_TIME_OFFSET ( 1, 0, .AHEAD. ) ;
#38 = ORIENTED_EDGE ( 'NONE', *, *, #69, .T. ) ;
#39 = FACE_OUTER_BOUND ( 'NONE', #181, .T. ) ;
#40 = CLOSED_SHELL ( 'NONE', ( #262, #187, #27, #93, #143, #283, #20, #288, #206 ) ) ;
#41 = CYLINDRICAL_SURFACE ( 'NONE', #240, 4.000000000000000000 ) ;
#42 = PERSON_AND_ORGANIZATION ( #171, #289 ) ;
#43 = EDGE_CURVE ( 'NONE', #248, #222, #252, .T. ) ;
#44 = CARTESIAN_POINT ( 'NONE',  ( -2.250000000000000000, 0.000000000000000000, 203.0000000000000000 ) ) ;
#45 = AXIS2_PLACEMENT_3D ( 'NONE', #256, #188, #35 ) ;
#46 = CARTESIAN_POINT ( 'NONE',  ( -4.000000000000000000, 0.000000000000000000, 3.000000000000000000 ) ) ;
#47 = CARTESIAN_POINT ( 'NONE',  ( -4.000000000000000000, 0.000000000000000000, 0.000000000000000000 ) ) ;
#48 = DIRECTION ( 'NONE',  ( -0.000000000000000000, -0.000000000000000000, -1.000000000000000000 ) ) ;
#49 = DIRECTION ( 'NONE',  ( 0.000000000000000000, 0.000000000000000000, 1.000000000000000000 ) ) ;
#50 = CIRCLE ( 'NONE', #177, 2.250000000000000000 ) ;
#51 = CARTESIAN_POINT ( 'NONE',  ( 0.000000000000000000, 0.000000000000000000, 203.0000000000000000 ) ) ;
#52 = EDGE_LOOP ( 'NONE', ( #34, #194, #38, #152 ) ) ;
#53 = ORIENTED_EDGE ( 'NONE', *, *, #43, .F. ) ;
#54 = CC_DESIGN_PERSON_AND_ORGANIZATION_ASSIGNMENT ( #235, #142, ( #112 ) ) ;
#55 = PLANE ( 'NONE',  #151 ) ;
#56 = APPLICATION_PROTOCOL_DEFINITION ( 'international standard', 'config_control_design', 1994, #124 ) ;
#57 = DIRECTION ( 'NONE',  ( 0.000000000000000000, 0.000000000000000000, 1.000000000000000000 ) ) ;
#58 = CARTESIAN_POINT ( 'NONE',  ( 2.250000000000000000, 2.755455298081544285E-16, 3.200000000000008171 ) ) ;
#59 = SHAPE_DEFINITION_REPRESENTATION ( #74, #215 ) ;
#60 = CIRCLE ( 'NONE', #71, 2.250000000000000000 ) ;
#61 = CARTESIAN_POINT ( 'NONE',  ( -2.250000000000000000, 0.000000000000000000, 203.0000000000000000 ) ) ;
#62 = CALENDAR_DATE ( 2022, 20, 6 ) ;
#63 = EDGE_LOOP ( 'NONE', ( #53, #100, #219, #76 ) ) ;
#64 = CALENDAR_DATE ( 2022, 20, 6 ) ;
#65 = CIRCLE ( 'NONE', #213, 4.000000000000000000 ) ;
#66 = CARTESIAN_POINT ( 'NONE',  ( -2.250000000000000000, 0.000000000000000000, 3.200000000000008171 ) ) ;
#67 = CARTESIAN_POINT ( 'NONE',  ( 0.000000000000000000, 0.000000000000000000, 3.200000000000008171 ) ) ;
#68 = CARTESIAN_POINT ( 'NONE',  ( 0.000000000000000000, 0.000000000000000000, 3.000000000000000000 ) ) ;
#69 = EDGE_CURVE ( 'NONE', #97, #153, #184, .T. ) ;
#70 = DIRECTION ( 'NONE',  ( 1.000000000000000000, 0.000000000000000000, 0.000000000000000000 ) ) ;
#71 = AXIS2_PLACEMENT_3D ( 'NONE', #199, #57, #113 ) ;
#72 = ORIENTED_EDGE ( 'NONE', *, *, #103, .F. ) ;
#73 = DIRECTION ( 'NONE',  ( 1.000000000000000000, 0.000000000000000000, 0.000000000000000000 ) ) ;
#74 = PRODUCT_DEFINITION_SHAPE ( 'NONE', 'NONE',  #304 ) ;
#75 = EDGE_CURVE ( 'NONE', #223, #97, #204, .T. ) ;
#76 = ORIENTED_EDGE ( 'NONE', *, *, #103, .T. ) ;
#77 = CARTESIAN_POINT ( 'NONE',  ( 0.000000000000000000, 0.000000000000000000, 3.000000000000000000 ) ) ;
#78 = PERSON_AND_ORGANIZATION ( #171, #289 ) ;
#79 = VECTOR ( 'NONE', #133, 1000.000000000000000 ) ;
#80 = PERSON_AND_ORGANIZATION_ROLE ( 'design_owner' ) ;
#81 = DIRECTION ( 'NONE',  ( -0.000000000000000000, -0.000000000000000000, -1.000000000000000000 ) ) ;
#82 = DATE_AND_TIME ( #276, #147 ) ;
#83 = DIRECTION ( 'NONE',  ( 1.000000000000000000, 0.000000000000000000, 0.000000000000000000 ) ) ;
#84 = CARTESIAN_POINT ( 'NONE',  ( 2.449999999999999734, 0.000000000000000000, 3.200000000000008171 ) ) ;
#85 = EDGE_CURVE ( 'NONE', #210, #200, #158, .T. ) ;
#86 = CARTESIAN_POINT ( 'NONE',  ( 0.000000000000000000, 0.000000000000000000, 203.0000000000000000 ) ) ;
#87 = SECURITY_CLASSIFICATION_LEVEL ( 'unclassified' ) ;
#88 = AXIS2_PLACEMENT_3D ( 'NONE', #23, #212, #216 ) ;
#89 = FACE_OUTER_BOUND ( 'NONE', #291, .T. ) ;
#90 = CC_DESIGN_PERSON_AND_ORGANIZATION_ASSIGNMENT ( #78, #139, ( #112 ) ) ;
#91 = FACE_OUTER_BOUND ( 'NONE', #21, .T. ) ;
#92 = DIRECTION ( 'NONE',  ( 0.000000000000000000, 0.000000000000000000, 1.000000000000000000 ) ) ;
#93 = ADVANCED_FACE ( 'NONE', ( #225 ), #104, .T. ) ;
#94 = ORIENTED_EDGE ( 'NONE', *, *, #298, .T. ) ;
#95 = CARTESIAN_POINT ( 'NONE',  ( 2.250000000000000000, 2.755455298081544285E-16, 203.0000000000000000 ) ) ;
#96 = ORIENTED_EDGE ( 'NONE', *, *, #129, .T. ) ;
#97 = VERTEX_POINT ( 'NONE', #58 ) ;
#98 = CC_DESIGN_PERSON_AND_ORGANIZATION_ASSIGNMENT ( #294, #80, ( #130 ) ) ;
#99 = LINE ( 'NONE', #95, #237 ) ;
#100 = ORIENTED_EDGE ( 'NONE', *, *, #175, .F. ) ;
#101 = ORIENTED_EDGE ( 'NONE', *, *, #244, .T. ) ;
#102 = AXIS2_PLACEMENT_3D ( 'NONE', #239, #148, #119 ) ;
#103 = EDGE_CURVE ( 'NONE', #200, #222, #282, .T. ) ;
#104 = CYLINDRICAL_SURFACE ( 'NONE', #259, 4.000000000000000000 ) ;
#105 =( NAMED_UNIT ( * ) SI_UNIT ( $, .STERADIAN. ) SOLID_ANGLE_UNIT ( ) );
#106 = DIRECTION ( 'NONE',  ( 0.000000000000000000, 0.000000000000000000, 1.000000000000000000 ) ) ;
#107 = DATE_TIME_ROLE ( 'classification_date' ) ;
#108 = APPROVAL ( #185, 'NEURÈENÝ' ) ;
#109 = AXIS2_PLACEMENT_3D ( 'NONE', #228, #106, #202 ) ;
#110 = CARTESIAN_POINT ( 'NONE',  ( 0.000000000000000000, 0.000000000000000000, 3.000000000000000000 ) ) ;
#111 = DATE_AND_TIME ( #64, #220 ) ;
#112 = PRODUCT_DEFINITION_FORMATION_WITH_SPECIFIED_SOURCE ( 'LIBOVOLNÝ', '', #130, .NOT_KNOWN. ) ;
#113 = DIRECTION ( 'NONE',  ( 1.000000000000000000, 0.000000000000000000, 0.000000000000000000 ) ) ;
#114 = PLANE ( 'NONE',  #197 ) ;
#115 = PERSON_AND_ORGANIZATION_ROLE ( 'creator' ) ;
#116 = ORIENTED_EDGE ( 'NONE', *, *, #272, .F. ) ;
#117 = PERSON_AND_ORGANIZATION_ROLE ( 'classification_officer' ) ;
#118 = DIRECTION ( 'NONE',  ( 0.000000000000000000, 0.000000000000000000, 1.000000000000000000 ) ) ;
#119 = DIRECTION ( 'NONE',  ( 1.000000000000000000, 0.000000000000000000, 0.000000000000000000 ) ) ;
#120 = VECTOR ( 'NONE', #81, 1000.000000000000000 ) ;
#121 = MANIFOLD_SOLID_BREP ( 'Zaoblit1', #40 ) ;
#122 = DIRECTION ( 'NONE',  ( 0.000000000000000000, 0.000000000000000000, 1.000000000000000000 ) ) ;
#123 = CIRCLE ( 'NONE', #273, 4.000000000000000000 ) ;
#124 = APPLICATION_CONTEXT ( 'configuration controlled 3d designs of mechanical parts and assemblies' ) ;
#125 = UNCERTAINTY_MEASURE_WITH_UNIT (LENGTH_MEASURE( 1.000000000000000082E-05 ), #165, 'distance_accuracy_value', 'NONE');
#126 = EDGE_LOOP ( 'NONE', ( #132, #11 ) ) ;
#127 = APPROVAL_PERSON_ORGANIZATION ( #277, #217, #299 ) ;
#128 = ORIENTED_EDGE ( 'NONE', *, *, #286, .T. ) ;
#129 = EDGE_CURVE ( 'NONE', #179, #223, #230, .T. ) ;
#130 = PRODUCT ( '16ae', '16ae', '', ( #13 ) ) ;
#131 = DIRECTION ( 'NONE',  ( 1.000000000000000000, 0.000000000000000000, -0.000000000000000000 ) ) ;
#132 = ORIENTED_EDGE ( 'NONE', *, *, #157, .T. ) ;
#133 = DIRECTION ( 'NONE',  ( -0.000000000000000000, -0.000000000000000000, -1.000000000000000000 ) ) ;
#134 = AXIS2_PLACEMENT_3D ( 'NONE', #207, #136, #83 ) ;
#135 = EDGE_CURVE ( 'NONE', #221, #153, #25, .T. ) ;
#136 = DIRECTION ( 'NONE',  ( 0.000000000000000000, 0.000000000000000000, 1.000000000000000000 ) ) ;
#137 = DIRECTION ( 'NONE',  ( -1.000000000000000000, 0.000000000000000000, 0.000000000000000000 ) ) ;
#138 = DIRECTION ( 'NONE',  ( 0.000000000000000000, -1.000000000000000000, 0.000000000000000000 ) ) ;
#139 = PERSON_AND_ORGANIZATION_ROLE ( 'design_supplier' ) ;
#140 = CARTESIAN_POINT ( 'NONE',  ( 0.000000000000000000, 0.000000000000000000, 3.000000000000000000 ) ) ;
#141 = ORIENTED_EDGE ( 'NONE', *, *, #175, .T. ) ;
#142 = PERSON_AND_ORGANIZATION_ROLE ( 'creator' ) ;
#143 = ADVANCED_FACE ( 'NONE', ( #258, #39 ), #114, .T. ) ;
#144 = DIRECTION ( 'NONE',  ( 1.224646799147353207E-16, 1.000000000000000000, -0.000000000000000000 ) ) ;
#145 = DIRECTION ( 'NONE',  ( 0.000000000000000000, 0.000000000000000000, 1.000000000000000000 ) ) ;
#146 = VECTOR ( 'NONE', #280, 1000.000000000000000 ) ;
#147 = LOCAL_TIME ( 12, 5, 42.00000000000000000, #170 ) ;
#148 = DIRECTION ( 'NONE',  ( 0.000000000000000000, 0.000000000000000000, 1.000000000000000000 ) ) ;
#149 = EDGE_CURVE ( 'NONE', #223, #221, #166, .T. ) ;
#150 = FACE_OUTER_BOUND ( 'NONE', #31, .T. ) ;
#151 = AXIS2_PLACEMENT_3D ( 'NONE', #246, #32, #131 ) ;
#152 = ORIENTED_EDGE ( 'NONE', *, *, #135, .F. ) ;
#153 = VERTEX_POINT ( 'NONE', #4 ) ;
#154 = ORIENTED_EDGE ( 'NONE', *, *, #244, .F. ) ;
#155 = APPROVAL_STATUS ( 'not_yet_approved' ) ;
#156 = CARTESIAN_POINT ( 'NONE',  ( 4.000000000000000000, 4.898587196589412829E-16, 3.000000000000000000 ) ) ;
#157 = EDGE_CURVE ( 'NONE', #179, #12, #271, .T. ) ;
#158 = LINE ( 'NONE', #297, #79 ) ;
#159 = CC_DESIGN_DATE_AND_TIME_ASSIGNMENT ( #203, #264, ( #304 ) ) ;
#160 = PERSON_AND_ORGANIZATION ( #171, #289 ) ;
#161 = FACE_OUTER_BOUND ( 'NONE', #29, .T. ) ;
#162 = PRODUCT_RELATED_PRODUCT_CATEGORY ( 'detail', '', ( #130 ) ) ;
#163 = APPROVAL_STATUS ( 'not_yet_approved' ) ;
#164 = DIRECTION ( 'NONE',  ( 1.000000000000000000, 0.000000000000000000, 0.000000000000000000 ) ) ;
#165 =( LENGTH_UNIT ( ) NAMED_UNIT ( * ) SI_UNIT ( .MILLI., .METRE. ) );
#166 = CIRCLE ( 'NONE', #232, 0.2000000000000000944 ) ;
#167 = ORIENTED_EDGE ( 'NONE', *, *, #75, .F. ) ;
#168 = LOCAL_TIME ( 12, 5, 42.00000000000000000, #209 ) ;
#169 = DIRECTION ( 'NONE',  ( 1.000000000000000000, 0.000000000000000000, 0.000000000000000000 ) ) ;
#170 = COORDINATED_UNIVERSAL_TIME_OFFSET ( 1, 0, .AHEAD. ) ;
#171 = PERSON ( 'NEURÈENÝ', 'NEURÈENÝ', 'NEURÈENÝ', ('NEURÈENÝ'), ('NEURÈENÝ'), ('NEURÈENÝ') ) ;
#172 = DIRECTION ( 'NONE',  ( 0.000000000000000000, 0.000000000000000000, 1.000000000000000000 ) ) ;
#173 = DIRECTION ( 'NONE',  ( 1.000000000000000000, 0.000000000000000000, 0.000000000000000000 ) ) ;
#174 = DIRECTION ( 'NONE',  ( -0.000000000000000000, -0.000000000000000000, -1.000000000000000000 ) ) ;
#175 = EDGE_CURVE ( 'NONE', #210, #248, #195, .T. ) ;
#176 = PLANE ( 'NONE',  #214 ) ;
#177 = AXIS2_PLACEMENT_3D ( 'NONE', #238, #118, #169 ) ;
#178 = LOCAL_TIME ( 12, 5, 42.00000000000000000, #306 ) ;
#179 = VERTEX_POINT ( 'NONE', #44 ) ;
#180 = AXIS2_PLACEMENT_3D ( 'NONE', #265, #92, #70 ) ;
#181 = EDGE_LOOP ( 'NONE', ( #141, #278 ) ) ;
#182 = DIRECTION ( 'NONE',  ( -0.000000000000000000, -0.000000000000000000, -1.000000000000000000 ) ) ;
#183 = APPROVAL_DATE_TIME ( #111, #217 ) ;
#184 = CIRCLE ( 'NONE', #30, 0.2000000000000000944 ) ;
#185 = APPROVAL_STATUS ( 'not_yet_approved' ) ;
#186 = CARTESIAN_POINT ( 'NONE',  ( 0.000000000000000000, 0.000000000000000000, 3.000000000000000000 ) ) ;
#187 = ADVANCED_FACE ( 'NONE', ( #91 ), #26, .T. ) ;
#188 = DIRECTION ( 'NONE',  ( 0.000000000000000000, 0.000000000000000000, 1.000000000000000000 ) ) ;
#189 = DIRECTION ( 'NONE',  ( -0.000000000000000000, -0.000000000000000000, -1.000000000000000000 ) ) ;
#190 = PERSON_AND_ORGANIZATION ( #171, #289 ) ;
#191 = EDGE_CURVE ( 'NONE', #248, #210, #65, .T. ) ;
#192 = DIRECTION ( 'NONE',  ( -1.000000000000000000, 0.000000000000000000, 0.000000000000000000 ) ) ;
#193 = CARTESIAN_POINT ( 'NONE',  ( 4.000000000000000000, 4.898587196589412829E-16, 3.000000000000000000 ) ) ;
#194 = ORIENTED_EDGE ( 'NONE', *, *, #298, .F. ) ;
#195 = CIRCLE ( 'NONE', #36, 4.000000000000000000 ) ;
#196 = ORIENTED_EDGE ( 'NONE', *, *, #224, .F. ) ;
#197 = AXIS2_PLACEMENT_3D ( 'NONE', #140, #231, #19 ) ;
#198 = APPROVAL_PERSON_ORGANIZATION ( #190, #227, #301 ) ;
#199 = CARTESIAN_POINT ( 'NONE',  ( 0.000000000000000000, 0.000000000000000000, 3.200000000000008171 ) ) ;
#200 = VERTEX_POINT ( 'NONE', #47 ) ;
#201 = COORDINATED_UNIVERSAL_TIME_OFFSET ( 1, 0, .AHEAD. ) ;
#202 = DIRECTION ( 'NONE',  ( 1.000000000000000000, 0.000000000000000000, 0.000000000000000000 ) ) ;
#203 = DATE_AND_TIME ( #62, #168 ) ;
#204 = CIRCLE ( 'NONE', #45, 2.250000000000000000 ) ;
#205 = CYLINDRICAL_SURFACE ( 'NONE', #6, 2.250000000000000000 ) ;
#206 = ADVANCED_FACE ( 'NONE', ( #266 ), #241, .F. ) ;
#207 = CARTESIAN_POINT ( 'NONE',  ( 0.000000000000000000, 0.000000000000000000, 0.000000000000000000 ) ) ;
#208 = CARTESIAN_POINT ( 'NONE',  ( -2.449999999999999734, 3.000384657911015370E-16, 3.200000000000008171 ) ) ;
#209 = COORDINATED_UNIVERSAL_TIME_OFFSET ( 1, 0, .AHEAD. ) ;
#210 = VERTEX_POINT ( 'NONE', #46 ) ;
#211 = DATE_AND_TIME ( #15, #279 ) ;
#212 = DIRECTION ( 'NONE',  ( -0.000000000000000000, -0.000000000000000000, -1.000000000000000000 ) ) ;
#213 = AXIS2_PLACEMENT_3D ( 'NONE', #68, #122, #218 ) ;
#214 = AXIS2_PLACEMENT_3D ( 'NONE', #51, #49, #242 ) ;
#215 = ADVANCED_BREP_SHAPE_REPRESENTATION ( '16ae', ( #121, #134 ), #295 ) ;
#216 = DIRECTION ( 'NONE',  ( 1.000000000000000000, 0.000000000000000000, 0.000000000000000000 ) ) ;
#217 = APPROVAL ( #155, 'NEURÈENÝ' ) ;
#218 = DIRECTION ( 'NONE',  ( 1.000000000000000000, 0.000000000000000000, 0.000000000000000000 ) ) ;
#219 = ORIENTED_EDGE ( 'NONE', *, *, #85, .T. ) ;
#220 = LOCAL_TIME ( 12, 5, 42.00000000000000000, #201 ) ;
#221 = VERTEX_POINT ( 'NONE', #263 ) ;
#222 = VERTEX_POINT ( 'NONE', #5 ) ;
#223 = VERTEX_POINT ( 'NONE', #66 ) ;
#224 = EDGE_CURVE ( 'NONE', #12, #179, #50, .T. ) ;
#225 = FACE_OUTER_BOUND ( 'NONE', #63, .T. ) ;
#226 = CIRCLE ( 'NONE', #88, 2.449999999999999734 ) ;
#227 = APPROVAL ( #163, 'NEURÈENÝ' ) ;
#228 = CARTESIAN_POINT ( 'NONE',  ( 0.000000000000000000, 0.000000000000000000, 0.000000000000000000 ) ) ;
#229 = CALENDAR_DATE ( 2022, 20, 6 ) ;
#230 = LINE ( 'NONE', #61, #120 ) ;
#231 = DIRECTION ( 'NONE',  ( 0.000000000000000000, 0.000000000000000000, 1.000000000000000000 ) ) ;
#232 = AXIS2_PLACEMENT_3D ( 'NONE', #208, #144, #287 ) ;
#233 =( NAMED_UNIT ( * ) PLANE_ANGLE_UNIT ( ) SI_UNIT ( $, .RADIAN. ) );
#234 = ORIENTED_EDGE ( 'NONE', *, *, #129, .F. ) ;
#235 = PERSON_AND_ORGANIZATION ( #171, #289 ) ;
#236 = DIRECTION ( 'NONE',  ( 0.000000000000000000, 0.000000000000000000, 1.000000000000000000 ) ) ;
#237 = VECTOR ( 'NONE', #174, 1000.000000000000000 ) ;
#238 = CARTESIAN_POINT ( 'NONE',  ( 0.000000000000000000, 0.000000000000000000, 203.0000000000000000 ) ) ;
#239 = CARTESIAN_POINT ( 'NONE',  ( 0.000000000000000000, 0.000000000000000000, 3.200000000000008171 ) ) ;
#240 = AXIS2_PLACEMENT_3D ( 'NONE', #110, #189, #137 ) ;
#241 = TOROIDAL_SURFACE ( 'NONE', #102, 2.449999999999999734, 0.2000000000000000111 ) ;
#242 = DIRECTION ( 'NONE',  ( 1.000000000000000000, 0.000000000000000000, -0.000000000000000000 ) ) ;
#243 = ORIENTED_EDGE ( 'NONE', *, *, #157, .F. ) ;
#244 = EDGE_CURVE ( 'NONE', #153, #221, #226, .T. ) ;
#245 = ORIENTED_EDGE ( 'NONE', *, *, #135, .T. ) ;
#246 = CARTESIAN_POINT ( 'NONE',  ( 0.000000000000000000, 0.000000000000000000, 0.000000000000000000 ) ) ;
#247 = CC_DESIGN_APPROVAL ( #227, ( #254 ) ) ;
#248 = VERTEX_POINT ( 'NONE', #193 ) ;
#249 = APPLICATION_CONTEXT ( 'configuration controlled 3d designs of mechanical parts and assemblies' ) ;
#250 = ORIENTED_EDGE ( 'NONE', *, *, #43, .T. ) ;
#251 = DIRECTION ( 'NONE',  ( 0.000000000000000000, 0.000000000000000000, -1.000000000000000000 ) ) ;
#252 = LINE ( 'NONE', #156, #146 ) ;
#253 = CC_DESIGN_PERSON_AND_ORGANIZATION_ASSIGNMENT ( #255, #115, ( #304 ) ) ;
#254 = SECURITY_CLASSIFICATION ( '', '', #87 ) ;
#255 = PERSON_AND_ORGANIZATION ( #171, #289 ) ;
#256 = CARTESIAN_POINT ( 'NONE',  ( 0.000000000000000000, 0.000000000000000000, 3.200000000000008171 ) ) ;
#257 = APPROVAL_DATE_TIME ( #82, #227 ) ;
#258 = FACE_BOUND ( 'NONE', #290, .T. ) ;
#259 = AXIS2_PLACEMENT_3D ( 'NONE', #77, #182, #14 ) ;
#260 = CC_DESIGN_DATE_AND_TIME_ASSIGNMENT ( #211, #107, ( #254 ) ) ;
#261 = DIRECTION ( 'NONE',  ( -0.000000000000000000, -0.000000000000000000, -1.000000000000000000 ) ) ;
#262 = ADVANCED_FACE ( 'NONE', ( #89 ), #270, .F. ) ;
#263 = CARTESIAN_POINT ( 'NONE',  ( -2.449999999999999734, 3.000384657911015370E-16, 3.000000000000004441 ) ) ;
#264 = DATE_TIME_ROLE ( 'creation_date' ) ;
#265 = CARTESIAN_POINT ( 'NONE',  ( 0.000000000000000000, 0.000000000000000000, 203.0000000000000000 ) ) ;
#266 = FACE_OUTER_BOUND ( 'NONE', #52, .T. ) ;
#267 = APPROVAL_PERSON_ORGANIZATION ( #42, #108, #18 ) ;
#268 = CARTESIAN_POINT ( 'NONE',  ( 0.000000000000000000, 0.000000000000000000, 203.0000000000000000 ) ) ;
#269 = FACE_OUTER_BOUND ( 'NONE', #126, .T. ) ;
#270 = TOROIDAL_SURFACE ( 'NONE', #2, 2.449999999999999734, 0.2000000000000000111 ) ;
#271 = CIRCLE ( 'NONE', #180, 2.250000000000000000 ) ;
#272 = EDGE_CURVE ( 'NONE', #222, #200, #123, .T. ) ;
#273 = AXIS2_PLACEMENT_3D ( 'NONE', #285, #145, #73 ) ;
#274 = EDGE_LOOP ( 'NONE', ( #7, #250, #307, #9 ) ) ;
#275 = FACE_OUTER_BOUND ( 'NONE', #274, .T. ) ;
#276 = CALENDAR_DATE ( 2022, 20, 6 ) ;
#277 = PERSON_AND_ORGANIZATION ( #171, #289 ) ;
#278 = ORIENTED_EDGE ( 'NONE', *, *, #191, .T. ) ;
#279 = LOCAL_TIME ( 12, 5, 42.00000000000000000, #37 ) ;
#280 = DIRECTION ( 'NONE',  ( -0.000000000000000000, -0.000000000000000000, -1.000000000000000000 ) ) ;
#281 = APPLICATION_PROTOCOL_DEFINITION ( 'international standard', 'config_control_design', 1994, #249 ) ;
#282 = CIRCLE ( 'NONE', #109, 4.000000000000000000 ) ;
#283 = ADVANCED_FACE ( 'NONE', ( #150 ), #55, .F. ) ;
#284 = DATE_AND_TIME ( #229, #178 ) ;
#285 = CARTESIAN_POINT ( 'NONE',  ( 0.000000000000000000, 0.000000000000000000, 0.000000000000000000 ) ) ;
#286 = EDGE_CURVE ( 'NONE', #12, #97, #99, .T. ) ;
#287 = DIRECTION ( 'NONE',  ( -1.000000000000000000, 1.224646799147353207E-16, 0.000000000000000000 ) ) ;
#288 = ADVANCED_FACE ( 'NONE', ( #269 ), #176, .T. ) ;
#289 = ORGANIZATION ( 'NEURÈENÝ', 'NEURÈENÝ', '' ) ;
#290 = EDGE_LOOP ( 'NONE', ( #101, #245 ) ) ;
#291 = EDGE_LOOP ( 'NONE', ( #167, #33, #154, #296 ) ) ;
#292 = AXIS2_PLACEMENT_3D ( 'NONE', #186, #17, #164 ) ;
#293 = AXIS2_PLACEMENT_3D ( 'NONE', #268, #48, #192 ) ;
#294 = PERSON_AND_ORGANIZATION ( #171, #289 ) ;
#295 =( GEOMETRIC_REPRESENTATION_CONTEXT ( 3 ) GLOBAL_UNCERTAINTY_ASSIGNED_CONTEXT ( ( #125 ) ) GLOBAL_UNIT_ASSIGNED_CONTEXT ( ( #165, #233, #105 ) ) REPRESENTATION_CONTEXT ( 'NONE', 'WORKASPACE' ) );
#296 = ORIENTED_EDGE ( 'NONE', *, *, #69, .F. ) ;
#297 = CARTESIAN_POINT ( 'NONE',  ( -4.000000000000000000, 0.000000000000000000, 3.000000000000000000 ) ) ;
#298 = EDGE_CURVE ( 'NONE', #97, #223, #60, .T. ) ;
#299 = APPROVAL_ROLE ( '' ) ;
#300 = DIRECTION ( 'NONE',  ( -1.000000000000000000, 0.000000000000000000, 0.000000000000000000 ) ) ;
#301 = APPROVAL_ROLE ( '' ) ;
#302 = CARTESIAN_POINT ( 'NONE',  ( 2.250000000000000000, 2.755455298081544285E-16, 203.0000000000000000 ) ) ;
#303 = CC_DESIGN_SECURITY_CLASSIFICATION ( #254, ( #112 ) ) ;
#304 = PRODUCT_DEFINITION ( 'NEZNÁMÝ', '', #112, #8 ) ;
#305 = ORIENTED_EDGE ( 'NONE', *, *, #75, .T. ) ;
#306 = COORDINATED_UNIVERSAL_TIME_OFFSET ( 1, 0, .AHEAD. ) ;
#307 = ORIENTED_EDGE ( 'NONE', *, *, #272, .T. ) ;
ENDSEC;
END-ISO-10303-21;
