ISO-10303-21;
HEADER;
FILE_DESCRIPTION (( 'STEP AP203' ),
    '1' );
FILE_NAME ('2f0b.STEP',
    '2022-06-20T09:31:32',
    ( '' ),
    ( '' ),
    'SwSTEP 2.0',
    'SolidWorks 2019',
    '' );
FILE_SCHEMA (( 'CONFIG_CONTROL_DESIGN' ));
ENDSEC;

DATA;
#1 = ORIENTED_EDGE ( 'NONE', *, *, #85, .T. ) ;
#2 = ORIENTED_EDGE ( 'NONE', *, *, #24, .T. ) ;
#3 = PERSON_AND_ORGANIZATION_ROLE ( 'classification_officer' ) ;
#4 = ORIENTED_EDGE ( 'NONE', *, *, #93, .T. ) ;
#5 = EDGE_CURVE ( 'NONE', #235, #285, #201, .T. ) ;
#6 = APPROVAL_ROLE ( '' ) ;
#7 = DIRECTION ( 'NONE',  ( 0.000000000000000000, 0.000000000000000000, -1.000000000000000000 ) ) ;
#8 = ORIENTED_EDGE ( 'NONE', *, *, #27, .T. ) ;
#9 = AXIS2_PLACEMENT_3D ( 'NONE', #227, #295, #272 ) ;
#10 = CARTESIAN_POINT ( 'NONE',  ( -6.299999999999998934, 7.715274834628324392E-16, 6.999999999999999112 ) ) ;
#11 = CARTESIAN_POINT ( 'NONE',  ( 9.000000000000000000, 1.102182119232617714E-15, 7.000000000000000000 ) ) ;
#12 = CLOSED_SHELL ( 'NONE', ( #278, #229, #187, #251, #182, #253, #18, #134, #264 ) ) ;
#13 = CARTESIAN_POINT ( 'NONE',  ( -9.000000000000000000, 0.000000000000000000, 7.000000000000000000 ) ) ;
#14 = CIRCLE ( 'NONE', #151, 9.000000000000000000 ) ;
#15 = CARTESIAN_POINT ( 'NONE',  ( 0.000000000000000000, 0.000000000000000000, 7.000000000000000000 ) ) ;
#16 = CARTESIAN_POINT ( 'NONE',  ( 0.000000000000000000, 0.000000000000000000, 107.0000000000000142 ) ) ;
#17 = PERSON_AND_ORGANIZATION ( #58, #292 ) ;
#18 = ADVANCED_FACE ( 'NONE', ( #70 ), #46, .T. ) ;
#19 = DIRECTION ( 'NONE',  ( 0.000000000000000000, 0.000000000000000000, 1.000000000000000000 ) ) ;
#20 = CARTESIAN_POINT ( 'NONE',  ( 6.099999999999999645, 7.470345474798854293E-16, 107.0000000000000142 ) ) ;
#21 = LOCAL_TIME ( 11, 31, 32.00000000000000000, #289 ) ;
#22 = DATE_AND_TIME ( #163, #21 ) ;
#23 = EDGE_LOOP ( 'NONE', ( #141, #118 ) ) ;
#24 = EDGE_CURVE ( 'NONE', #281, #235, #132, .T. ) ;
#25 = ORIENTED_EDGE ( 'NONE', *, *, #155, .F. ) ;
#26 = ORIENTED_EDGE ( 'NONE', *, *, #85, .F. ) ;
#27 = EDGE_CURVE ( 'NONE', #94, #122, #298, .T. ) ;
#28 = VECTOR ( 'NONE', #250, 1000.000000000000000 ) ;
#29 = CARTESIAN_POINT ( 'NONE',  ( 0.000000000000000000, 0.000000000000000000, 7.000000000000000000 ) ) ;
#30 = AXIS2_PLACEMENT_3D ( 'NONE', #62, #188, #302 ) ;
#31 = APPROVAL_DATE_TIME ( #53, #204 ) ;
#32 = DIRECTION ( 'NONE',  ( 1.000000000000000000, 0.000000000000000000, -0.000000000000000000 ) ) ;
#33 = DIRECTION ( 'NONE',  ( 1.000000000000000000, 0.000000000000000000, -0.000000000000000000 ) ) ;
#34 = AXIS2_PLACEMENT_3D ( 'NONE', #39, #19, #307 ) ;
#35 = LINE ( 'NONE', #13, #172 ) ;
#36 = DIRECTION ( 'NONE',  ( 1.000000000000000000, 0.000000000000000000, 0.000000000000000000 ) ) ;
#37 = VECTOR ( 'NONE', #269, 1000.000000000000000 ) ;
#38 = AXIS2_PLACEMENT_3D ( 'NONE', #29, #124, #224 ) ;
#39 = CARTESIAN_POINT ( 'NONE',  ( 0.000000000000000000, 0.000000000000000000, 0.000000000000000000 ) ) ;
#40 = APPLICATION_PROTOCOL_DEFINITION ( 'international standard', 'config_control_design', 1994, #92 ) ;
#41 = VECTOR ( 'NONE', #61, 1000.000000000000000 ) ;
#42 = DATE_AND_TIME ( #219, #231 ) ;
#43 = ORIENTED_EDGE ( 'NONE', *, *, #155, .T. ) ;
#44 = CC_DESIGN_PERSON_AND_ORGANIZATION_ASSIGNMENT ( #17, #208, ( #220 ) ) ;
#45 = PERSON_AND_ORGANIZATION ( #58, #292 ) ;
#46 = CYLINDRICAL_SURFACE ( 'NONE', #268, 6.099999999999999645 ) ;
#47 = ORIENTED_EDGE ( 'NONE', *, *, #27, .F. ) ;
#48 = APPROVAL_ROLE ( '' ) ;
#49 = PRODUCT_DEFINITION_SHAPE ( 'NONE', 'NONE',  #216 ) ;
#50 = EDGE_LOOP ( 'NONE', ( #261, #148 ) ) ;
#51 = CARTESIAN_POINT ( 'NONE',  ( 6.099999999999999645, 7.470345474798854293E-16, 107.0000000000000142 ) ) ;
#52 = AXIS2_PLACEMENT_3D ( 'NONE', #128, #225, #297 ) ;
#53 = DATE_AND_TIME ( #242, #89 ) ;
#54 = DATE_TIME_ROLE ( 'classification_date' ) ;
#55 = CYLINDRICAL_SURFACE ( 'NONE', #223, 6.099999999999999645 ) ;
#56 = APPROVAL_PERSON_ORGANIZATION ( #69, #294, #48 ) ;
#57 = CARTESIAN_POINT ( 'NONE',  ( 0.000000000000000000, 0.000000000000000000, 7.199999999999998401 ) ) ;
#58 = PERSON ( 'NEURÈENÝ', 'NEURÈENÝ', 'NEURÈENÝ', ('NEURÈENÝ'), ('NEURÈENÝ'), ('NEURÈENÝ') ) ;
#59 = DIRECTION ( 'NONE',  ( 1.000000000000000000, 0.000000000000000000, 0.000000000000000000 ) ) ;
#60 = CARTESIAN_POINT ( 'NONE',  ( -6.299999999999998934, 7.715274834628324392E-16, 7.199999999999998401 ) ) ;
#61 = DIRECTION ( 'NONE',  ( -0.000000000000000000, -0.000000000000000000, -1.000000000000000000 ) ) ;
#62 = CARTESIAN_POINT ( 'NONE',  ( 0.000000000000000000, 0.000000000000000000, 7.000000000000000000 ) ) ;
#63 = DIRECTION ( 'NONE',  ( 0.000000000000000000, 0.000000000000000000, 1.000000000000000000 ) ) ;
#64 = CARTESIAN_POINT ( 'NONE',  ( 6.099999999999999645, 7.470345474798854293E-16, 7.199999999999998401 ) ) ;
#65 = APPROVAL_ROLE ( '' ) ;
#66 = APPROVAL_STATUS ( 'not_yet_approved' ) ;
#67 = ORIENTED_EDGE ( 'NONE', *, *, #159, .F. ) ;
#68 = ORIENTED_EDGE ( 'NONE', *, *, #5, .F. ) ;
#69 = PERSON_AND_ORGANIZATION ( #58, #292 ) ;
#70 = FACE_OUTER_BOUND ( 'NONE', #175, .T. ) ;
#71 = ORIENTED_EDGE ( 'NONE', *, *, #304, .F. ) ;
#72 = AXIS2_PLACEMENT_3D ( 'NONE', #16, #79, #32 ) ;
#73 = PERSON_AND_ORGANIZATION ( #58, #292 ) ;
#74 = ORIENTED_EDGE ( 'NONE', *, *, #176, .T. ) ;
#75 = PRODUCT_DEFINITION_FORMATION_WITH_SPECIFIED_SOURCE ( 'LIBOVOLNÝ', '', #220, .NOT_KNOWN. ) ;
#76 = EDGE_CURVE ( 'NONE', #281, #215, #84, .T. ) ;
#77 = FACE_OUTER_BOUND ( 'NONE', #287, .T. ) ;
#78 = CARTESIAN_POINT ( 'NONE',  ( -9.000000000000000000, 0.000000000000000000, 7.000000000000000000 ) ) ;
#79 = DIRECTION ( 'NONE',  ( 0.000000000000000000, 0.000000000000000000, 1.000000000000000000 ) ) ;
#80 = EDGE_CURVE ( 'NONE', #191, #222, #275, .T. ) ;
#81 = CC_DESIGN_APPROVAL ( #270, ( #75 ) ) ;
#82 = CARTESIAN_POINT ( 'NONE',  ( 9.000000000000000000, 1.102182119232617714E-15, 7.000000000000000000 ) ) ;
#83 = DIRECTION ( 'NONE',  ( 0.000000000000000000, 0.000000000000000000, 1.000000000000000000 ) ) ;
#84 = CIRCLE ( 'NONE', #150, 0.1999999999999996503 ) ;
#85 = EDGE_CURVE ( 'NONE', #97, #122, #300, .T. ) ;
#86 = SHAPE_DEFINITION_REPRESENTATION ( #49, #91 ) ;
#87 = CARTESIAN_POINT ( 'NONE',  ( 0.000000000000000000, 0.000000000000000000, 107.0000000000000142 ) ) ;
#88 = CARTESIAN_POINT ( 'NONE',  ( 0.000000000000000000, 0.000000000000000000, 7.000000000000000000 ) ) ;
#89 = LOCAL_TIME ( 11, 31, 32.00000000000000000, #168 ) ;
#90 = DIRECTION ( 'NONE',  ( 1.000000000000000000, 0.000000000000000000, 0.000000000000000000 ) ) ;
#91 = ADVANCED_BREP_SHAPE_REPRESENTATION ( '2f0b', ( #217, #179 ), #245 ) ;
#92 = APPLICATION_CONTEXT ( 'configuration controlled 3d designs of mechanical parts and assemblies' ) ;
#93 = EDGE_CURVE ( 'NONE', #195, #97, #35, .T. ) ;
#94 = VERTEX_POINT ( 'NONE', #82 ) ;
#95 = PERSON_AND_ORGANIZATION ( #58, #292 ) ;
#96 = SECURITY_CLASSIFICATION ( '', '', #171 ) ;
#97 = VERTEX_POINT ( 'NONE', #293 ) ;
#98 = EDGE_LOOP ( 'NONE', ( #266, #262, #74, #164 ) ) ;
#99 = CARTESIAN_POINT ( 'NONE',  ( 0.000000000000000000, 0.000000000000000000, 107.0000000000000142 ) ) ;
#100 = ORIENTED_EDGE ( 'NONE', *, *, #76, .F. ) ;
#101 = CARTESIAN_POINT ( 'NONE',  ( -6.099999999999999645, 0.000000000000000000, 107.0000000000000142 ) ) ;
#102 = CC_DESIGN_DATE_AND_TIME_ASSIGNMENT ( #105, #54, ( #96 ) ) ;
#103 = CARTESIAN_POINT ( 'NONE',  ( 0.000000000000000000, 0.000000000000000000, 0.000000000000000000 ) ) ;
#104 = PLANE ( 'NONE',  #72 ) ;
#105 = DATE_AND_TIME ( #286, #209 ) ;
#106 = DIRECTION ( 'NONE',  ( -0.000000000000000000, -0.000000000000000000, -1.000000000000000000 ) ) ;
#107 =( LENGTH_UNIT ( ) NAMED_UNIT ( * ) SI_UNIT ( .MILLI., .METRE. ) );
#108 = DIRECTION ( 'NONE',  ( -0.000000000000000000, -0.000000000000000000, -1.000000000000000000 ) ) ;
#109 = CARTESIAN_POINT ( 'NONE',  ( 0.000000000000000000, 0.000000000000000000, 0.000000000000000000 ) ) ;
#110 = CC_DESIGN_PERSON_AND_ORGANIZATION_ASSIGNMENT ( #140, #115, ( #75 ) ) ;
#111 = DIRECTION ( 'NONE',  ( -1.000000000000000000, 0.000000000000000000, 0.000000000000000000 ) ) ;
#112 = APPROVAL_STATUS ( 'not_yet_approved' ) ;
#113 = CALENDAR_DATE ( 2022, 20, 6 ) ;
#114 = ORIENTED_EDGE ( 'NONE', *, *, #5, .T. ) ;
#115 = PERSON_AND_ORGANIZATION_ROLE ( 'creator' ) ;
#116 = ORIENTED_EDGE ( 'NONE', *, *, #233, .F. ) ;
#117 = APPROVAL_DATE_TIME ( #22, #294 ) ;
#118 = ORIENTED_EDGE ( 'NONE', *, *, #304, .T. ) ;
#119 = PERSON_AND_ORGANIZATION ( #58, #292 ) ;
#120 = ORIENTED_EDGE ( 'NONE', *, *, #207, .F. ) ;
#121 = CC_DESIGN_PERSON_AND_ORGANIZATION_ASSIGNMENT ( #73, #284, ( #216 ) ) ;
#122 = VERTEX_POINT ( 'NONE', #127 ) ;
#123 = TOROIDAL_SURFACE ( 'NONE', #165, 6.299999999999998934, 0.2000000000000000111 ) ;
#124 = DIRECTION ( 'NONE',  ( 0.000000000000000000, 0.000000000000000000, 1.000000000000000000 ) ) ;
#125 = LOCAL_TIME ( 11, 31, 32.00000000000000000, #265 ) ;
#126 = DIRECTION ( 'NONE',  ( -1.000000000000000000, 1.224646799147353454E-16, 0.000000000000000000 ) ) ;
#127 = CARTESIAN_POINT ( 'NONE',  ( 9.000000000000000000, 1.102182119232617714E-15, 0.000000000000000000 ) ) ;
#128 = CARTESIAN_POINT ( 'NONE',  ( 0.000000000000000000, 0.000000000000000000, 107.0000000000000142 ) ) ;
#129 = CC_DESIGN_APPROVAL ( #204, ( #96 ) ) ;
#130 = CARTESIAN_POINT ( 'NONE',  ( 0.000000000000000000, 0.000000000000000000, 7.000000000000000000 ) ) ;
#131 = DIRECTION ( 'NONE',  ( 0.000000000000000000, 0.000000000000000000, 1.000000000000000000 ) ) ;
#132 = CIRCLE ( 'NONE', #196, 6.099999999999999645 ) ;
#133 = DIRECTION ( 'NONE',  ( 0.000000000000000000, 0.000000000000000000, 1.000000000000000000 ) ) ;
#134 = ADVANCED_FACE ( 'NONE', ( #296 ), #104, .T. ) ;
#135 = CARTESIAN_POINT ( 'NONE',  ( -6.099999999999999645, 0.000000000000000000, 7.199999999999998401 ) ) ;
#136 = DESIGN_CONTEXT ( 'detailed design', #214, 'design' ) ;
#137 = CARTESIAN_POINT ( 'NONE',  ( 0.000000000000000000, 0.000000000000000000, 7.199999999999998401 ) ) ;
#138 = EDGE_CURVE ( 'NONE', #222, #281, #203, .T. ) ;
#139 = ORIENTED_EDGE ( 'NONE', *, *, #256, .T. ) ;
#140 = PERSON_AND_ORGANIZATION ( #58, #292 ) ;
#141 = ORIENTED_EDGE ( 'NONE', *, *, #159, .T. ) ;
#142 = PERSON_AND_ORGANIZATION_ROLE ( 'design_supplier' ) ;
#143 = EDGE_LOOP ( 'NONE', ( #167, #236, #67, #68 ) ) ;
#144 = CIRCLE ( 'NONE', #30, 6.299999999999998934 ) ;
#145 = CC_DESIGN_PERSON_AND_ORGANIZATION_ASSIGNMENT ( #45, #142, ( #75 ) ) ;
#146 = EDGE_LOOP ( 'NONE', ( #26, #240 ) ) ;
#147 = DATE_AND_TIME ( #113, #125 ) ;
#148 = ORIENTED_EDGE ( 'NONE', *, *, #80, .T. ) ;
#149 = CARTESIAN_POINT ( 'NONE',  ( 0.000000000000000000, 0.000000000000000000, 7.199999999999998401 ) ) ;
#150 = AXIS2_PLACEMENT_3D ( 'NONE', #60, #273, #126 ) ;
#151 = AXIS2_PLACEMENT_3D ( 'NONE', #109, #277, #36 ) ;
#152 = CARTESIAN_POINT ( 'NONE',  ( 0.000000000000000000, 0.000000000000000000, 107.0000000000000142 ) ) ;
#153 = DIRECTION ( 'NONE',  ( 0.000000000000000000, 0.000000000000000000, 1.000000000000000000 ) ) ;
#154 = FACE_OUTER_BOUND ( 'NONE', #239, .T. ) ;
#155 = EDGE_CURVE ( 'NONE', #195, #94, #288, .T. ) ;
#156 = DIRECTION ( 'NONE',  ( -0.000000000000000000, -0.000000000000000000, -1.000000000000000000 ) ) ;
#157 = UNCERTAINTY_MEASURE_WITH_UNIT (LENGTH_MEASURE( 1.000000000000000082E-05 ), #107, 'distance_accuracy_value', 'NONE');
#158 = DIRECTION ( 'NONE',  ( 1.000000000000000000, 0.000000000000000000, 0.000000000000000000 ) ) ;
#159 = EDGE_CURVE ( 'NONE', #285, #215, #190, .T. ) ;
#160 = CC_DESIGN_APPROVAL ( #294, ( #216 ) ) ;
#161 = DIRECTION ( 'NONE',  ( -1.000000000000000000, 0.000000000000000000, 0.000000000000000000 ) ) ;
#162 = CARTESIAN_POINT ( 'NONE',  ( 6.299999999999998934, 0.000000000000000000, 6.999999999999999112 ) ) ;
#163 = CALENDAR_DATE ( 2022, 20, 6 ) ;
#164 = ORIENTED_EDGE ( 'NONE', *, *, #138, .F. ) ;
#165 = AXIS2_PLACEMENT_3D ( 'NONE', #279, #186, #276 ) ;
#166 = APPLICATION_PROTOCOL_DEFINITION ( 'international standard', 'config_control_design', 1994, #214 ) ;
#167 = ORIENTED_EDGE ( 'NONE', *, *, #24, .F. ) ;
#168 = COORDINATED_UNIVERSAL_TIME_OFFSET ( 1, 0, .AHEAD. ) ;
#169 = DATE_TIME_ROLE ( 'creation_date' ) ;
#170 = ORIENTED_EDGE ( 'NONE', *, *, #93, .F. ) ;
#171 = SECURITY_CLASSIFICATION_LEVEL ( 'unclassified' ) ;
#172 = VECTOR ( 'NONE', #156, 1000.000000000000000 ) ;
#173 = ORIENTED_EDGE ( 'NONE', *, *, #138, .T. ) ;
#174 = AXIS2_PLACEMENT_3D ( 'NONE', #88, #108, #161 ) ;
#175 = EDGE_LOOP ( 'NONE', ( #255, #116, #173, #2 ) ) ;
#176 = EDGE_CURVE ( 'NONE', #235, #281, #234, .T. ) ;
#177 = CYLINDRICAL_SURFACE ( 'NONE', #263, 9.000000000000000000 ) ;
#178 = FACE_OUTER_BOUND ( 'NONE', #98, .T. ) ;
#179 = AXIS2_PLACEMENT_3D ( 'NONE', #252, #133, #158 ) ;
#180 = CARTESIAN_POINT ( 'NONE',  ( -6.099999999999999645, 0.000000000000000000, 107.0000000000000142 ) ) ;
#181 = FACE_BOUND ( 'NONE', #23, .T. ) ;
#182 = ADVANCED_FACE ( 'NONE', ( #181, #154 ), #248, .T. ) ;
#183 = MECHANICAL_CONTEXT ( 'NONE', #92, 'mechanical' ) ;
#184 = CIRCLE ( 'NONE', #291, 6.099999999999999645 ) ;
#185 = CC_DESIGN_SECURITY_CLASSIFICATION ( #96, ( #75 ) ) ;
#186 = DIRECTION ( 'NONE',  ( 0.000000000000000000, 0.000000000000000000, 1.000000000000000000 ) ) ;
#187 = ADVANCED_FACE ( 'NONE', ( #77 ), #177, .T. ) ;
#188 = DIRECTION ( 'NONE',  ( -0.000000000000000000, -0.000000000000000000, -1.000000000000000000 ) ) ;
#189 = FACE_OUTER_BOUND ( 'NONE', #259, .T. ) ;
#190 = CIRCLE ( 'NONE', #9, 6.299999999999998934 ) ;
#191 = VERTEX_POINT ( 'NONE', #51 ) ;
#192 = ORIENTED_EDGE ( 'NONE', *, *, #176, .F. ) ;
#193 = PRODUCT_RELATED_PRODUCT_CATEGORY ( 'detail', '', ( #220 ) ) ;
#194 = COORDINATED_UNIVERSAL_TIME_OFFSET ( 1, 0, .AHEAD. ) ;
#195 = VERTEX_POINT ( 'NONE', #78 ) ;
#196 = AXIS2_PLACEMENT_3D ( 'NONE', #149, #274, #205 ) ;
#197 = DIRECTION ( 'NONE',  ( -0.000000000000000000, -0.000000000000000000, -1.000000000000000000 ) ) ;
#198 = AXIS2_PLACEMENT_3D ( 'NONE', #57, #153, #59 ) ;
#199 = DIRECTION ( 'NONE',  ( 1.000000000000000000, 0.000000000000000000, 0.000000000000000000 ) ) ;
#200 = DIRECTION ( 'NONE',  ( 0.000000000000000000, 0.000000000000000000, 1.000000000000000000 ) ) ;
#201 = CIRCLE ( 'NONE', #237, 0.1999999999999996503 ) ;
#202 = AXIS2_PLACEMENT_3D ( 'NONE', #244, #249, #33 ) ;
#203 = LINE ( 'NONE', #180, #28 ) ;
#204 = APPROVAL ( #112, 'NEURÈENÝ' ) ;
#205 = DIRECTION ( 'NONE',  ( 1.000000000000000000, 0.000000000000000000, 0.000000000000000000 ) ) ;
#206 =( NAMED_UNIT ( * ) PLANE_ANGLE_UNIT ( ) SI_UNIT ( $, .RADIAN. ) );
#207 = EDGE_CURVE ( 'NONE', #94, #195, #283, .T. ) ;
#208 = PERSON_AND_ORGANIZATION_ROLE ( 'design_owner' ) ;
#209 = LOCAL_TIME ( 11, 31, 32.00000000000000000, #194 ) ;
#210 = DIRECTION ( 'NONE',  ( 1.000000000000000000, 0.000000000000000000, 0.000000000000000000 ) ) ;
#211 = FACE_OUTER_BOUND ( 'NONE', #221, .T. ) ;
#212 = FACE_OUTER_BOUND ( 'NONE', #146, .T. ) ;
#213 = APPROVAL_PERSON_ORGANIZATION ( #119, #270, #6 ) ;
#214 = APPLICATION_CONTEXT ( 'configuration controlled 3d designs of mechanical parts and assemblies' ) ;
#215 = VERTEX_POINT ( 'NONE', #10 ) ;
#216 = PRODUCT_DEFINITION ( 'NEZNÁMÝ', '', #75, #136 ) ;
#217 = MANIFOLD_SOLID_BREP ( 'Zaoblit1', #12 ) ;
#218 = DIRECTION ( 'NONE',  ( 0.000000000000000000, -1.000000000000000000, 0.000000000000000000 ) ) ;
#219 = CALENDAR_DATE ( 2022, 20, 6 ) ;
#220 = PRODUCT ( '2f0b', '2f0b', '', ( #183 ) ) ;
#221 = EDGE_LOOP ( 'NONE', ( #47, #25, #4, #1 ) ) ;
#222 = VERTEX_POINT ( 'NONE', #101 ) ;
#223 = AXIS2_PLACEMENT_3D ( 'NONE', #152, #246, #111 ) ;
#224 = DIRECTION ( 'NONE',  ( 1.000000000000000000, 0.000000000000000000, 0.000000000000000000 ) ) ;
#225 = DIRECTION ( 'NONE',  ( 0.000000000000000000, 0.000000000000000000, 1.000000000000000000 ) ) ;
#226 = CC_DESIGN_DATE_AND_TIME_ASSIGNMENT ( #42, #169, ( #216 ) ) ;
#227 = CARTESIAN_POINT ( 'NONE',  ( 0.000000000000000000, 0.000000000000000000, 7.000000000000000000 ) ) ;
#228 = DIRECTION ( 'NONE',  ( 1.000000000000000000, 0.000000000000000000, 0.000000000000000000 ) ) ;
#229 = ADVANCED_FACE ( 'NONE', ( #178 ), #55, .T. ) ;
#230 = LINE ( 'NONE', #20, #41 ) ;
#231 = LOCAL_TIME ( 11, 31, 32.00000000000000000, #258 ) ;
#232 =( NAMED_UNIT ( * ) SI_UNIT ( $, .STERADIAN. ) SOLID_ANGLE_UNIT ( ) );
#233 = EDGE_CURVE ( 'NONE', #222, #191, #184, .T. ) ;
#234 = CIRCLE ( 'NONE', #198, 6.099999999999999645 ) ;
#235 = VERTEX_POINT ( 'NONE', #64 ) ;
#236 = ORIENTED_EDGE ( 'NONE', *, *, #76, .T. ) ;
#237 = AXIS2_PLACEMENT_3D ( 'NONE', #241, #218, #7 ) ;
#238 = PERSON_AND_ORGANIZATION ( #58, #292 ) ;
#239 = EDGE_LOOP ( 'NONE', ( #43, #282 ) ) ;
#240 = ORIENTED_EDGE ( 'NONE', *, *, #256, .F. ) ;
#241 = CARTESIAN_POINT ( 'NONE',  ( 6.299999999999998934, 0.000000000000000000, 7.199999999999998401 ) ) ;
#242 = CALENDAR_DATE ( 2022, 20, 6 ) ;
#243 = AXIS2_PLACEMENT_3D ( 'NONE', #130, #83, #199 ) ;
#244 = CARTESIAN_POINT ( 'NONE',  ( 0.000000000000000000, 0.000000000000000000, 7.000000000000000000 ) ) ;
#245 =( GEOMETRIC_REPRESENTATION_CONTEXT ( 3 ) GLOBAL_UNCERTAINTY_ASSIGNED_CONTEXT ( ( #157 ) ) GLOBAL_UNIT_ASSIGNED_CONTEXT ( ( #107, #206, #232 ) ) REPRESENTATION_CONTEXT ( 'NONE', 'WORKASPACE' ) );
#246 = DIRECTION ( 'NONE',  ( -0.000000000000000000, -0.000000000000000000, -1.000000000000000000 ) ) ;
#247 = EDGE_CURVE ( 'NONE', #191, #235, #230, .T. ) ;
#248 = PLANE ( 'NONE',  #202 ) ;
#249 = DIRECTION ( 'NONE',  ( 0.000000000000000000, 0.000000000000000000, 1.000000000000000000 ) ) ;
#250 = DIRECTION ( 'NONE',  ( -0.000000000000000000, -0.000000000000000000, -1.000000000000000000 ) ) ;
#251 = ADVANCED_FACE ( 'NONE', ( #211 ), #303, .T. ) ;
#252 = CARTESIAN_POINT ( 'NONE',  ( 0.000000000000000000, 0.000000000000000000, 0.000000000000000000 ) ) ;
#253 = ADVANCED_FACE ( 'NONE', ( #212 ), #299, .F. ) ;
#254 = APPROVAL_DATE_TIME ( #147, #270 ) ;
#255 = ORIENTED_EDGE ( 'NONE', *, *, #247, .F. ) ;
#256 = EDGE_CURVE ( 'NONE', #122, #97, #14, .T. ) ;
#257 = TOROIDAL_SURFACE ( 'NONE', #301, 6.299999999999998934, 0.2000000000000000111 ) ;
#258 = COORDINATED_UNIVERSAL_TIME_OFFSET ( 1, 0, .AHEAD. ) ;
#259 = EDGE_LOOP ( 'NONE', ( #100, #192, #114, #71 ) ) ;
#260 = APPROVAL_STATUS ( 'not_yet_approved' ) ;
#261 = ORIENTED_EDGE ( 'NONE', *, *, #233, .T. ) ;
#262 = ORIENTED_EDGE ( 'NONE', *, *, #247, .T. ) ;
#263 = AXIS2_PLACEMENT_3D ( 'NONE', #15, #106, #267 ) ;
#264 = ADVANCED_FACE ( 'NONE', ( #189 ), #257, .F. ) ;
#265 = COORDINATED_UNIVERSAL_TIME_OFFSET ( 1, 0, .AHEAD. ) ;
#266 = ORIENTED_EDGE ( 'NONE', *, *, #80, .F. ) ;
#267 = DIRECTION ( 'NONE',  ( -1.000000000000000000, 0.000000000000000000, 0.000000000000000000 ) ) ;
#268 = AXIS2_PLACEMENT_3D ( 'NONE', #99, #197, #290 ) ;
#269 = DIRECTION ( 'NONE',  ( -0.000000000000000000, -0.000000000000000000, -1.000000000000000000 ) ) ;
#270 = APPROVAL ( #260, 'NEURÈENÝ' ) ;
#271 = APPROVAL_PERSON_ORGANIZATION ( #95, #204, #65 ) ;
#272 = DIRECTION ( 'NONE',  ( 1.000000000000000000, 0.000000000000000000, 0.000000000000000000 ) ) ;
#273 = DIRECTION ( 'NONE',  ( 1.224646799147353207E-16, 1.000000000000000000, -0.000000000000000000 ) ) ;
#274 = DIRECTION ( 'NONE',  ( 0.000000000000000000, 0.000000000000000000, 1.000000000000000000 ) ) ;
#275 = CIRCLE ( 'NONE', #52, 6.099999999999999645 ) ;
#276 = DIRECTION ( 'NONE',  ( 1.000000000000000000, 0.000000000000000000, 0.000000000000000000 ) ) ;
#277 = DIRECTION ( 'NONE',  ( 0.000000000000000000, 0.000000000000000000, 1.000000000000000000 ) ) ;
#278 = ADVANCED_FACE ( 'NONE', ( #305 ), #123, .F. ) ;
#279 = CARTESIAN_POINT ( 'NONE',  ( 0.000000000000000000, 0.000000000000000000, 7.199999999999998401 ) ) ;
#280 = CC_DESIGN_PERSON_AND_ORGANIZATION_ASSIGNMENT ( #238, #3, ( #96 ) ) ;
#281 = VERTEX_POINT ( 'NONE', #135 ) ;
#282 = ORIENTED_EDGE ( 'NONE', *, *, #207, .T. ) ;
#283 = CIRCLE ( 'NONE', #38, 9.000000000000000000 ) ;
#284 = PERSON_AND_ORGANIZATION_ROLE ( 'creator' ) ;
#285 = VERTEX_POINT ( 'NONE', #162 ) ;
#286 = CALENDAR_DATE ( 2022, 20, 6 ) ;
#287 = EDGE_LOOP ( 'NONE', ( #120, #8, #139, #170 ) ) ;
#288 = CIRCLE ( 'NONE', #243, 9.000000000000000000 ) ;
#289 = COORDINATED_UNIVERSAL_TIME_OFFSET ( 1, 0, .AHEAD. ) ;
#290 = DIRECTION ( 'NONE',  ( -1.000000000000000000, 0.000000000000000000, 0.000000000000000000 ) ) ;
#291 = AXIS2_PLACEMENT_3D ( 'NONE', #87, #63, #210 ) ;
#292 = ORGANIZATION ( 'NEURÈENÝ', 'NEURÈENÝ', '' ) ;
#293 = CARTESIAN_POINT ( 'NONE',  ( -9.000000000000000000, 0.000000000000000000, 0.000000000000000000 ) ) ;
#294 = APPROVAL ( #66, 'NEURÈENÝ' ) ;
#295 = DIRECTION ( 'NONE',  ( -0.000000000000000000, -0.000000000000000000, -1.000000000000000000 ) ) ;
#296 = FACE_OUTER_BOUND ( 'NONE', #50, .T. ) ;
#297 = DIRECTION ( 'NONE',  ( 1.000000000000000000, 0.000000000000000000, 0.000000000000000000 ) ) ;
#298 = LINE ( 'NONE', #11, #37 ) ;
#299 = PLANE ( 'NONE',  #34 ) ;
#300 = CIRCLE ( 'NONE', #306, 9.000000000000000000 ) ;
#301 = AXIS2_PLACEMENT_3D ( 'NONE', #137, #131, #90 ) ;
#302 = DIRECTION ( 'NONE',  ( 1.000000000000000000, 0.000000000000000000, 0.000000000000000000 ) ) ;
#303 = CYLINDRICAL_SURFACE ( 'NONE', #174, 9.000000000000000000 ) ;
#304 = EDGE_CURVE ( 'NONE', #215, #285, #144, .T. ) ;
#305 = FACE_OUTER_BOUND ( 'NONE', #143, .T. ) ;
#306 = AXIS2_PLACEMENT_3D ( 'NONE', #103, #200, #228 ) ;
#307 = DIRECTION ( 'NONE',  ( 1.000000000000000000, 0.000000000000000000, -0.000000000000000000 ) ) ;
ENDSEC;
END-ISO-10303-21;
