ISO-10303-21;
HEADER;
FILE_DESCRIPTION (( 'STEP AP203' ),
    '1' );
FILE_NAME ('72be.STEP',
    '2022-06-20T09:35:15',
    ( '' ),
    ( '' ),
    'SwSTEP 2.0',
    'SolidWorks 2019',
    '' );
FILE_SCHEMA (( 'CONFIG_CONTROL_DESIGN' ));
ENDSEC;

DATA;
#1 = DATE_AND_TIME ( #21, #268 ) ;
#2 = VERTEX_POINT ( 'NONE', #4 ) ;
#3 = AXIS2_PLACEMENT_3D ( 'NONE', #209, #231, #284 ) ;
#4 = CARTESIAN_POINT ( 'NONE',  ( 5.500000000000000000, 6.735557395310442023E-16, 5.199999999999982414 ) ) ;
#5 = DATE_AND_TIME ( #210, #144 ) ;
#6 = CARTESIAN_POINT ( 'NONE',  ( 0.000000000000000000, 0.000000000000000000, 5.199999999999982414 ) ) ;
#7 = ORIENTED_EDGE ( 'NONE', *, *, #272, .F. ) ;
#8 = DIRECTION ( 'NONE',  ( -1.000000000000000000, 0.000000000000000000, 0.000000000000000000 ) ) ;
#9 = FACE_OUTER_BOUND ( 'NONE', #171, .T. ) ;
#10 = PRODUCT_DEFINITION_FORMATION_WITH_SPECIFIED_SOURCE ( 'LIBOVOLNÝ', '', #259, .NOT_KNOWN. ) ;
#11 = PLANE ( 'NONE',  #221 ) ;
#12 = DIRECTION ( 'NONE',  ( 1.000000000000000000, 0.000000000000000000, -0.000000000000000000 ) ) ;
#13 = EDGE_CURVE ( 'NONE', #2, #89, #28, .T. ) ;
#14 = AXIS2_PLACEMENT_3D ( 'NONE', #227, #100, #124 ) ;
#15 = LOCAL_TIME ( 11, 35, 15.00000000000000000, #260 ) ;
#16 = AXIS2_PLACEMENT_3D ( 'NONE', #91, #62, #193 ) ;
#17 = DIRECTION ( 'NONE',  ( 1.000000000000000000, 0.000000000000000000, 0.000000000000000000 ) ) ;
#18 = CARTESIAN_POINT ( 'NONE',  ( -5.699999999999999289, 6.980486755139912122E-16, 4.999999999999991118 ) ) ;
#19 = AXIS2_PLACEMENT_3D ( 'NONE', #58, #295, #103 ) ;
#20 = COORDINATED_UNIVERSAL_TIME_OFFSET ( 1, 0, .AHEAD. ) ;
#21 = CALENDAR_DATE ( 2022, 20, 6 ) ;
#22 = ORIENTED_EDGE ( 'NONE', *, *, #114, .F. ) ;
#23 = ADVANCED_FACE ( 'NONE', ( #26 ), #282, .F. ) ;
#24 = ORIENTED_EDGE ( 'NONE', *, *, #13, .F. ) ;
#25 = APPROVAL_STATUS ( 'not_yet_approved' ) ;
#26 = FACE_OUTER_BOUND ( 'NONE', #196, .T. ) ;
#27 = EDGE_LOOP ( 'NONE', ( #49, #143 ) ) ;
#28 = CIRCLE ( 'NONE', #180, 5.500000000000000000 ) ;
#29 = ORIENTED_EDGE ( 'NONE', *, *, #272, .T. ) ;
#30 = CC_DESIGN_PERSON_AND_ORGANIZATION_ASSIGNMENT ( #53, #82, ( #287 ) ) ;
#31 = CARTESIAN_POINT ( 'NONE',  ( 0.000000000000000000, 0.000000000000000000, 5.199999999999982414 ) ) ;
#32 = PRODUCT_RELATED_PRODUCT_CATEGORY ( 'detail', '', ( #259 ) ) ;
#33 = PERSON_AND_ORGANIZATION_ROLE ( 'design_supplier' ) ;
#34 = DIRECTION ( 'NONE',  ( 1.000000000000000000, 0.000000000000000000, 0.000000000000000000 ) ) ;
#35 = CC_DESIGN_SECURITY_CLASSIFICATION ( #287, ( #10 ) ) ;
#36 = DIRECTION ( 'NONE',  ( 1.000000000000000000, 0.000000000000000000, 0.000000000000000000 ) ) ;
#37 = DIRECTION ( 'NONE',  ( -0.000000000000000000, -0.000000000000000000, -1.000000000000000000 ) ) ;
#38 = CARTESIAN_POINT ( 'NONE',  ( 5.500000000000000000, 6.735557395310442023E-16, 405.0000000000000000 ) ) ;
#39 = COORDINATED_UNIVERSAL_TIME_OFFSET ( 1, 0, .AHEAD. ) ;
#40 = LINE ( 'NONE', #305, #275 ) ;
#41 = CYLINDRICAL_SURFACE ( 'NONE', #307, 8.000000000000000000 ) ;
#42 = PERSON_AND_ORGANIZATION_ROLE ( 'design_owner' ) ;
#43 = ORIENTED_EDGE ( 'NONE', *, *, #288, .F. ) ;
#44 = EDGE_CURVE ( 'NONE', #215, #145, #136, .T. ) ;
#45 = ORIENTED_EDGE ( 'NONE', *, *, #190, .F. ) ;
#46 = ORIENTED_EDGE ( 'NONE', *, *, #217, .T. ) ;
#47 = ADVANCED_FACE ( 'NONE', ( #9 ), #77, .T. ) ;
#48 = ADVANCED_FACE ( 'NONE', ( #298 ), #179, .T. ) ;
#49 = ORIENTED_EDGE ( 'NONE', *, *, #114, .T. ) ;
#50 = ORIENTED_EDGE ( 'NONE', *, *, #228, .F. ) ;
#51 = CARTESIAN_POINT ( 'NONE',  ( 5.699999999999999289, 0.000000000000000000, 5.199999999999982414 ) ) ;
#52 = VECTOR ( 'NONE', #59, 1000.000000000000000 ) ;
#53 = PERSON_AND_ORGANIZATION ( #213, #86 ) ;
#54 = DIRECTION ( 'NONE',  ( -1.000000000000000000, 0.000000000000000000, 0.000000000000000000 ) ) ;
#55 = CARTESIAN_POINT ( 'NONE',  ( 0.000000000000000000, 0.000000000000000000, 405.0000000000000000 ) ) ;
#56 = CYLINDRICAL_SURFACE ( 'NONE', #274, 5.500000000000000000 ) ;
#57 = VECTOR ( 'NONE', #172, 1000.000000000000000 ) ;
#58 = CARTESIAN_POINT ( 'NONE',  ( 0.000000000000000000, 0.000000000000000000, 5.199999999999982414 ) ) ;
#59 = DIRECTION ( 'NONE',  ( -0.000000000000000000, -0.000000000000000000, -1.000000000000000000 ) ) ;
#60 = FACE_OUTER_BOUND ( 'NONE', #71, .T. ) ;
#61 = AXIS2_PLACEMENT_3D ( 'NONE', #101, #149, #36 ) ;
#62 = DIRECTION ( 'NONE',  ( 0.000000000000000000, 0.000000000000000000, 1.000000000000000000 ) ) ;
#63 = ORIENTED_EDGE ( 'NONE', *, *, #204, .F. ) ;
#64 = AXIS2_PLACEMENT_3D ( 'NONE', #75, #249, #226 ) ;
#65 = ORIENTED_EDGE ( 'NONE', *, *, #133, .F. ) ;
#66 = CARTESIAN_POINT ( 'NONE',  ( 0.000000000000000000, 0.000000000000000000, 5.199999999999982414 ) ) ;
#67 = ADVANCED_FACE ( 'NONE', ( #278 ), #56, .T. ) ;
#68 = COORDINATED_UNIVERSAL_TIME_OFFSET ( 1, 0, .AHEAD. ) ;
#69 = EDGE_LOOP ( 'NONE', ( #43, #242, #141, #236 ) ) ;
#70 = PERSON_AND_ORGANIZATION ( #213, #86 ) ;
#71 = EDGE_LOOP ( 'NONE', ( #169, #192, #194, #29 ) ) ;
#72 = CARTESIAN_POINT ( 'NONE',  ( 5.500000000000000000, 6.735557395310442023E-16, 405.0000000000000000 ) ) ;
#73 = AXIS2_PLACEMENT_3D ( 'NONE', #253, #229, #12 ) ;
#74 = ADVANCED_FACE ( 'NONE', ( #125 ), #11, .F. ) ;
#75 = CARTESIAN_POINT ( 'NONE',  ( -5.699999999999999289, 6.980486755139912122E-16, 5.199999999999982414 ) ) ;
#76 = FACE_BOUND ( 'NONE', #286, .T. ) ;
#77 = CYLINDRICAL_SURFACE ( 'NONE', #266, 8.000000000000000000 ) ;
#78 = DATE_TIME_ROLE ( 'classification_date' ) ;
#79 = FACE_OUTER_BOUND ( 'NONE', #294, .T. ) ;
#80 = CIRCLE ( 'NONE', #117, 5.500000000000000000 ) ;
#81 = DIRECTION ( 'NONE',  ( 0.000000000000000000, 0.000000000000000000, 1.000000000000000000 ) ) ;
#82 = PERSON_AND_ORGANIZATION_ROLE ( 'classification_officer' ) ;
#83 = DIRECTION ( 'NONE',  ( 1.000000000000000000, 0.000000000000000000, 0.000000000000000000 ) ) ;
#84 = CARTESIAN_POINT ( 'NONE',  ( 0.000000000000000000, 0.000000000000000000, 5.000000000000000000 ) ) ;
#85 = CARTESIAN_POINT ( 'NONE',  ( 0.000000000000000000, 0.000000000000000000, 0.000000000000000000 ) ) ;
#86 = ORGANIZATION ( 'NEURÈENÝ', 'NEURÈENÝ', '' ) ;
#87 = CARTESIAN_POINT ( 'NONE',  ( -5.500000000000000000, 0.000000000000000000, 405.0000000000000000 ) ) ;
#88 = DATE_AND_TIME ( #239, #96 ) ;
#89 = VERTEX_POINT ( 'NONE', #277 ) ;
#90 = CC_DESIGN_PERSON_AND_ORGANIZATION_ASSIGNMENT ( #214, #42, ( #259 ) ) ;
#91 = CARTESIAN_POINT ( 'NONE',  ( 0.000000000000000000, 0.000000000000000000, 0.000000000000000000 ) ) ;
#92 = DIRECTION ( 'NONE',  ( 0.000000000000000000, 0.000000000000000000, 1.000000000000000000 ) ) ;
#93 = AXIS2_PLACEMENT_3D ( 'NONE', #6, #92, #195 ) ;
#94 = ADVANCED_BREP_SHAPE_REPRESENTATION ( '72be', ( #222, #16 ), #208 ) ;
#95 = ORIENTED_EDGE ( 'NONE', *, *, #44, .T. ) ;
#96 = LOCAL_TIME ( 11, 35, 15.00000000000000000, #39 ) ;
#97 = VERTEX_POINT ( 'NONE', #174 ) ;
#98 = CARTESIAN_POINT ( 'NONE',  ( 0.000000000000000000, 0.000000000000000000, 0.000000000000000000 ) ) ;
#99 = CLOSED_SHELL ( 'NONE', ( #23, #67, #47, #306, #109, #74, #48, #235, #170 ) ) ;
#100 = DIRECTION ( 'NONE',  ( 0.000000000000000000, 0.000000000000000000, 1.000000000000000000 ) ) ;
#101 = CARTESIAN_POINT ( 'NONE',  ( 0.000000000000000000, 0.000000000000000000, 5.000000000000000000 ) ) ;
#102 = EDGE_CURVE ( 'NONE', #290, #97, #201, .T. ) ;
#103 = DIRECTION ( 'NONE',  ( 1.000000000000000000, 0.000000000000000000, 0.000000000000000000 ) ) ;
#104 = CC_DESIGN_PERSON_AND_ORGANIZATION_ASSIGNMENT ( #165, #177, ( #10 ) ) ;
#105 = LINE ( 'NONE', #106, #248 ) ;
#106 = CARTESIAN_POINT ( 'NONE',  ( -5.500000000000000000, 0.000000000000000000, 405.0000000000000000 ) ) ;
#107 = SHAPE_DEFINITION_REPRESENTATION ( #205, #94 ) ;
#108 = CARTESIAN_POINT ( 'NONE',  ( 0.000000000000000000, 0.000000000000000000, 405.0000000000000000 ) ) ;
#109 = ADVANCED_FACE ( 'NONE', ( #76, #79 ), #153, .T. ) ;
#110 = APPROVAL_ROLE ( '' ) ;
#111 = CC_DESIGN_DATE_AND_TIME_ASSIGNMENT ( #5, #291, ( #240 ) ) ;
#112 = COORDINATED_UNIVERSAL_TIME_OFFSET ( 1, 0, .AHEAD. ) ;
#113 = ORIENTED_EDGE ( 'NONE', *, *, #252, .F. ) ;
#114 = EDGE_CURVE ( 'NONE', #224, #219, #244, .T. ) ;
#115 = MECHANICAL_CONTEXT ( 'NONE', #245, 'mechanical' ) ;
#116 = EDGE_LOOP ( 'NONE', ( #166, #22, #164, #267 ) ) ;
#117 = AXIS2_PLACEMENT_3D ( 'NONE', #304, #233, #132 ) ;
#118 = CALENDAR_DATE ( 2022, 20, 6 ) ;
#119 = PERSON_AND_ORGANIZATION_ROLE ( 'creator' ) ;
#120 = ORIENTED_EDGE ( 'NONE', *, *, #150, .F. ) ;
#121 = ORIENTED_EDGE ( 'NONE', *, *, #102, .F. ) ;
#122 = AXIS2_PLACEMENT_3D ( 'NONE', #31, #225, #83 ) ;
#123 = CC_DESIGN_APPROVAL ( #250, ( #10 ) ) ;
#124 = DIRECTION ( 'NONE',  ( 1.000000000000000000, 0.000000000000000000, 0.000000000000000000 ) ) ;
#125 = FACE_OUTER_BOUND ( 'NONE', #271, .T. ) ;
#126 = DIRECTION ( 'NONE',  ( 0.000000000000000000, 0.000000000000000000, 1.000000000000000000 ) ) ;
#127 = APPROVAL_PERSON_ORGANIZATION ( #254, #230, #160 ) ;
#128 = DIRECTION ( 'NONE',  ( 1.000000000000000000, 0.000000000000000000, 0.000000000000000000 ) ) ;
#129 = CARTESIAN_POINT ( 'NONE',  ( 0.000000000000000000, 0.000000000000000000, 405.0000000000000000 ) ) ;
#130 = APPLICATION_CONTEXT ( 'configuration controlled 3d designs of mechanical parts and assemblies' ) ;
#131 = APPLICATION_PROTOCOL_DEFINITION ( 'international standard', 'config_control_design', 1994, #245 ) ;
#132 = DIRECTION ( 'NONE',  ( 1.000000000000000000, 0.000000000000000000, 0.000000000000000000 ) ) ;
#133 = EDGE_CURVE ( 'NONE', #89, #290, #237, .T. ) ;
#134 = APPROVAL_DATE_TIME ( #88, #230 ) ;
#135 = PLANE ( 'NONE',  #258 ) ;
#136 = CIRCLE ( 'NONE', #188, 8.000000000000000000 ) ;
#137 = CIRCLE ( 'NONE', #189, 0.1999999999999996503 ) ;
#138 =( NAMED_UNIT ( * ) PLANE_ANGLE_UNIT ( ) SI_UNIT ( $, .RADIAN. ) );
#139 = PERSON_AND_ORGANIZATION ( #213, #86 ) ;
#140 = ORIENTED_EDGE ( 'NONE', *, *, #228, .T. ) ;
#141 = ORIENTED_EDGE ( 'NONE', *, *, #13, .T. ) ;
#142 = PERSON_AND_ORGANIZATION ( #213, #86 ) ;
#143 = ORIENTED_EDGE ( 'NONE', *, *, #288, .T. ) ;
#144 = LOCAL_TIME ( 11, 35, 15.00000000000000000, #112 ) ;
#145 = VERTEX_POINT ( 'NONE', #299 ) ;
#146 = APPROVAL_STATUS ( 'not_yet_approved' ) ;
#147 = VERTEX_POINT ( 'NONE', #280 ) ;
#148 = DIRECTION ( 'NONE',  ( 0.000000000000000000, -1.000000000000000000, 0.000000000000000000 ) ) ;
#149 = DIRECTION ( 'NONE',  ( -0.000000000000000000, -0.000000000000000000, -1.000000000000000000 ) ) ;
#150 = EDGE_CURVE ( 'NONE', #147, #211, #207, .T. ) ;
#151 = PERSON_AND_ORGANIZATION ( #213, #86 ) ;
#152 = DIRECTION ( 'NONE',  ( 0.000000000000000000, 0.000000000000000000, 1.000000000000000000 ) ) ;
#153 = PLANE ( 'NONE',  #73 ) ;
#154 = AXIS2_PLACEMENT_3D ( 'NONE', #178, #251, #34 ) ;
#155 = CARTESIAN_POINT ( 'NONE',  ( 0.000000000000000000, 0.000000000000000000, 5.000000000000000000 ) ) ;
#156 = DIRECTION ( 'NONE',  ( -0.000000000000000000, -0.000000000000000000, -1.000000000000000000 ) ) ;
#157 = DATE_AND_TIME ( #281, #15 ) ;
#158 = DIRECTION ( 'NONE',  ( 0.000000000000000000, 0.000000000000000000, 1.000000000000000000 ) ) ;
#159 = AXIS2_PLACEMENT_3D ( 'NONE', #85, #81, #17 ) ;
#160 = APPROVAL_ROLE ( '' ) ;
#161 = APPROVAL_PERSON_ORGANIZATION ( #70, #250, #110 ) ;
#162 = EDGE_CURVE ( 'NONE', #145, #215, #212, .T. ) ;
#163 = AXIS2_PLACEMENT_3D ( 'NONE', #273, #198, #8 ) ;
#164 = ORIENTED_EDGE ( 'NONE', *, *, #301, .T. ) ;
#165 = PERSON_AND_ORGANIZATION ( #213, #86 ) ;
#166 = ORIENTED_EDGE ( 'NONE', *, *, #175, .F. ) ;
#167 = DIRECTION ( 'NONE',  ( 0.000000000000000000, 0.000000000000000000, 1.000000000000000000 ) ) ;
#168 = APPROVAL_ROLE ( '' ) ;
#169 = ORIENTED_EDGE ( 'NONE', *, *, #217, .F. ) ;
#170 = ADVANCED_FACE ( 'NONE', ( #199 ), #223, .F. ) ;
#171 = EDGE_LOOP ( 'NONE', ( #243, #46, #269, #113 ) ) ;
#172 = DIRECTION ( 'NONE',  ( -0.000000000000000000, -0.000000000000000000, -1.000000000000000000 ) ) ;
#173 = AXIS2_PLACEMENT_3D ( 'NONE', #55, #152, #128 ) ;
#174 = CARTESIAN_POINT ( 'NONE',  ( 5.699999999999999289, 0.000000000000000000, 4.999999999999991118 ) ) ;
#175 = EDGE_CURVE ( 'NONE', #219, #2, #200, .T. ) ;
#176 = CIRCLE ( 'NONE', #159, 8.000000000000000000 ) ;
#177 = PERSON_AND_ORGANIZATION_ROLE ( 'creator' ) ;
#178 = CARTESIAN_POINT ( 'NONE',  ( 0.000000000000000000, 0.000000000000000000, 5.000000000000000000 ) ) ;
#179 = CYLINDRICAL_SURFACE ( 'NONE', #163, 5.500000000000000000 ) ;
#180 = AXIS2_PLACEMENT_3D ( 'NONE', #66, #167, #241 ) ;
#181 = APPROVAL_PERSON_ORGANIZATION ( #142, #184, #168 ) ;
#182 =( LENGTH_UNIT ( ) NAMED_UNIT ( * ) SI_UNIT ( .MILLI., .METRE. ) );
#183 = CARTESIAN_POINT ( 'NONE',  ( 8.000000000000000000, 9.797174393178825657E-16, 5.000000000000000000 ) ) ;
#184 = APPROVAL ( #25, 'NEURÈENÝ' ) ;
#185 = DESIGN_CONTEXT ( 'detailed design', #130, 'design' ) ;
#186 = DIRECTION ( 'NONE',  ( -0.000000000000000000, -0.000000000000000000, -1.000000000000000000 ) ) ;
#187 =( NAMED_UNIT ( * ) SI_UNIT ( $, .STERADIAN. ) SOLID_ANGLE_UNIT ( ) );
#188 = AXIS2_PLACEMENT_3D ( 'NONE', #218, #126, #276 ) ;
#189 = AXIS2_PLACEMENT_3D ( 'NONE', #51, #148, #247 ) ;
#190 = EDGE_CURVE ( 'NONE', #2, #97, #137, .T. ) ;
#191 = APPROVAL_DATE_TIME ( #1, #250 ) ;
#192 = ORIENTED_EDGE ( 'NONE', *, *, #44, .F. ) ;
#193 = DIRECTION ( 'NONE',  ( 1.000000000000000000, 0.000000000000000000, 0.000000000000000000 ) ) ;
#194 = ORIENTED_EDGE ( 'NONE', *, *, #252, .T. ) ;
#195 = DIRECTION ( 'NONE',  ( 1.000000000000000000, 0.000000000000000000, 0.000000000000000000 ) ) ;
#196 = EDGE_LOOP ( 'NONE', ( #63, #264, #50, #45 ) ) ;
#197 = DIRECTION ( 'NONE',  ( -1.000000000000000000, 0.000000000000000000, 0.000000000000000000 ) ) ;
#198 = DIRECTION ( 'NONE',  ( -0.000000000000000000, -0.000000000000000000, -1.000000000000000000 ) ) ;
#199 = FACE_OUTER_BOUND ( 'NONE', #292, .T. ) ;
#200 = LINE ( 'NONE', #72, #57 ) ;
#201 = CIRCLE ( 'NONE', #61, 5.699999999999999289 ) ;
#202 = CIRCLE ( 'NONE', #3, 5.699999999999999289 ) ;
#203 = LOCAL_TIME ( 11, 35, 15.00000000000000000, #20 ) ;
#204 = EDGE_CURVE ( 'NONE', #89, #2, #263, .T. ) ;
#205 = PRODUCT_DEFINITION_SHAPE ( 'NONE', 'NONE',  #240 ) ;
#206 = CARTESIAN_POINT ( 'NONE',  ( -8.000000000000000000, 0.000000000000000000, 5.000000000000000000 ) ) ;
#207 = CIRCLE ( 'NONE', #14, 8.000000000000000000 ) ;
#208 =( GEOMETRIC_REPRESENTATION_CONTEXT ( 3 ) GLOBAL_UNCERTAINTY_ASSIGNED_CONTEXT ( ( #256 ) ) GLOBAL_UNIT_ASSIGNED_CONTEXT ( ( #182, #138, #187 ) ) REPRESENTATION_CONTEXT ( 'NONE', 'WORKASPACE' ) );
#209 = CARTESIAN_POINT ( 'NONE',  ( 0.000000000000000000, 0.000000000000000000, 5.000000000000000000 ) ) ;
#210 = CALENDAR_DATE ( 2022, 20, 6 ) ;
#211 = VERTEX_POINT ( 'NONE', #262 ) ;
#212 = CIRCLE ( 'NONE', #154, 8.000000000000000000 ) ;
#213 = PERSON ( 'NEURÈENÝ', 'NEURÈENÝ', 'NEURÈENÝ', ('NEURÈENÝ'), ('NEURÈENÝ'), ('NEURÈENÝ') ) ;
#214 = PERSON_AND_ORGANIZATION ( #213, #86 ) ;
#215 = VERTEX_POINT ( 'NONE', #206 ) ;
#216 = DATE_AND_TIME ( #118, #203 ) ;
#217 = EDGE_CURVE ( 'NONE', #145, #147, #302, .T. ) ;
#218 = CARTESIAN_POINT ( 'NONE',  ( 0.000000000000000000, 0.000000000000000000, 5.000000000000000000 ) ) ;
#219 = VERTEX_POINT ( 'NONE', #38 ) ;
#220 = CC_DESIGN_PERSON_AND_ORGANIZATION_ASSIGNMENT ( #139, #119, ( #240 ) ) ;
#221 = AXIS2_PLACEMENT_3D ( 'NONE', #98, #296, #297 ) ;
#222 = MANIFOLD_SOLID_BREP ( 'Zaoblit1', #99 ) ;
#223 = TOROIDAL_SURFACE ( 'NONE', #19, 5.699999999999999289, 0.2000000000000000111 ) ;
#224 = VERTEX_POINT ( 'NONE', #87 ) ;
#225 = DIRECTION ( 'NONE',  ( 0.000000000000000000, 0.000000000000000000, 1.000000000000000000 ) ) ;
#226 = DIRECTION ( 'NONE',  ( -1.000000000000000000, 1.224646799147353454E-16, 0.000000000000000000 ) ) ;
#227 = CARTESIAN_POINT ( 'NONE',  ( 0.000000000000000000, 0.000000000000000000, 0.000000000000000000 ) ) ;
#228 = EDGE_CURVE ( 'NONE', #97, #290, #202, .T. ) ;
#229 = DIRECTION ( 'NONE',  ( 0.000000000000000000, 0.000000000000000000, 1.000000000000000000 ) ) ;
#230 = APPROVAL ( #303, 'NEURÈENÝ' ) ;
#231 = DIRECTION ( 'NONE',  ( -0.000000000000000000, -0.000000000000000000, -1.000000000000000000 ) ) ;
#232 = CC_DESIGN_APPROVAL ( #184, ( #240 ) ) ;
#233 = DIRECTION ( 'NONE',  ( 0.000000000000000000, 0.000000000000000000, 1.000000000000000000 ) ) ;
#234 = DIRECTION ( 'NONE',  ( -1.000000000000000000, 0.000000000000000000, 0.000000000000000000 ) ) ;
#235 = ADVANCED_FACE ( 'NONE', ( #261 ), #135, .T. ) ;
#236 = ORIENTED_EDGE ( 'NONE', *, *, #301, .F. ) ;
#237 = CIRCLE ( 'NONE', #64, 0.1999999999999996503 ) ;
#238 = ORIENTED_EDGE ( 'NONE', *, *, #162, .T. ) ;
#239 = CALENDAR_DATE ( 2022, 20, 6 ) ;
#240 = PRODUCT_DEFINITION ( 'NEZNÁMÝ', '', #10, #185 ) ;
#241 = DIRECTION ( 'NONE',  ( 1.000000000000000000, 0.000000000000000000, 0.000000000000000000 ) ) ;
#242 = ORIENTED_EDGE ( 'NONE', *, *, #175, .T. ) ;
#243 = ORIENTED_EDGE ( 'NONE', *, *, #162, .F. ) ;
#244 = CIRCLE ( 'NONE', #173, 5.500000000000000000 ) ;
#245 = APPLICATION_CONTEXT ( 'configuration controlled 3d designs of mechanical parts and assemblies' ) ;
#246 = SECURITY_CLASSIFICATION_LEVEL ( 'unclassified' ) ;
#247 = DIRECTION ( 'NONE',  ( 0.000000000000000000, 0.000000000000000000, -1.000000000000000000 ) ) ;
#248 = VECTOR ( 'NONE', #186, 1000.000000000000000 ) ;
#249 = DIRECTION ( 'NONE',  ( 1.224646799147353207E-16, 1.000000000000000000, -0.000000000000000000 ) ) ;
#250 = APPROVAL ( #146, 'NEURÈENÝ' ) ;
#251 = DIRECTION ( 'NONE',  ( 0.000000000000000000, 0.000000000000000000, 1.000000000000000000 ) ) ;
#252 = EDGE_CURVE ( 'NONE', #215, #211, #40, .T. ) ;
#253 = CARTESIAN_POINT ( 'NONE',  ( 0.000000000000000000, 0.000000000000000000, 5.000000000000000000 ) ) ;
#254 = PERSON_AND_ORGANIZATION ( #213, #86 ) ;
#255 = DIRECTION ( 'NONE',  ( -0.000000000000000000, -0.000000000000000000, -1.000000000000000000 ) ) ;
#256 = UNCERTAINTY_MEASURE_WITH_UNIT (LENGTH_MEASURE( 1.000000000000000082E-05 ), #182, 'distance_accuracy_value', 'NONE');
#257 = DIRECTION ( 'NONE',  ( -0.000000000000000000, -0.000000000000000000, -1.000000000000000000 ) ) ;
#258 = AXIS2_PLACEMENT_3D ( 'NONE', #108, #158, #300 ) ;
#259 = PRODUCT ( '72be', '72be', '', ( #115 ) ) ;
#260 = COORDINATED_UNIVERSAL_TIME_OFFSET ( 1, 0, .AHEAD. ) ;
#261 = FACE_OUTER_BOUND ( 'NONE', #27, .T. ) ;
#262 = CARTESIAN_POINT ( 'NONE',  ( -8.000000000000000000, 0.000000000000000000, 0.000000000000000000 ) ) ;
#263 = CIRCLE ( 'NONE', #122, 5.500000000000000000 ) ;
#264 = ORIENTED_EDGE ( 'NONE', *, *, #133, .T. ) ;
#265 = ORIENTED_EDGE ( 'NONE', *, *, #102, .T. ) ;
#266 = AXIS2_PLACEMENT_3D ( 'NONE', #155, #255, #54 ) ;
#267 = ORIENTED_EDGE ( 'NONE', *, *, #204, .T. ) ;
#268 = LOCAL_TIME ( 11, 35, 15.00000000000000000, #68 ) ;
#269 = ORIENTED_EDGE ( 'NONE', *, *, #150, .T. ) ;
#270 = APPLICATION_PROTOCOL_DEFINITION ( 'international standard', 'config_control_design', 1994, #130 ) ;
#271 = EDGE_LOOP ( 'NONE', ( #7, #120 ) ) ;
#272 = EDGE_CURVE ( 'NONE', #211, #147, #176, .T. ) ;
#273 = CARTESIAN_POINT ( 'NONE',  ( 0.000000000000000000, 0.000000000000000000, 405.0000000000000000 ) ) ;
#274 = AXIS2_PLACEMENT_3D ( 'NONE', #129, #37, #197 ) ;
#275 = VECTOR ( 'NONE', #257, 1000.000000000000000 ) ;
#276 = DIRECTION ( 'NONE',  ( 1.000000000000000000, 0.000000000000000000, 0.000000000000000000 ) ) ;
#277 = CARTESIAN_POINT ( 'NONE',  ( -5.500000000000000000, 0.000000000000000000, 5.199999999999982414 ) ) ;
#278 = FACE_OUTER_BOUND ( 'NONE', #69, .T. ) ;
#279 = CC_DESIGN_PERSON_AND_ORGANIZATION_ASSIGNMENT ( #151, #33, ( #10 ) ) ;
#280 = CARTESIAN_POINT ( 'NONE',  ( 8.000000000000000000, 9.797174393178825657E-16, 0.000000000000000000 ) ) ;
#281 = CALENDAR_DATE ( 2022, 20, 6 ) ;
#282 = TOROIDAL_SURFACE ( 'NONE', #93, 5.699999999999999289, 0.2000000000000000111 ) ;
#283 = CC_DESIGN_APPROVAL ( #230, ( #287 ) ) ;
#284 = DIRECTION ( 'NONE',  ( 1.000000000000000000, 0.000000000000000000, 0.000000000000000000 ) ) ;
#285 = CC_DESIGN_DATE_AND_TIME_ASSIGNMENT ( #157, #78, ( #287 ) ) ;
#286 = EDGE_LOOP ( 'NONE', ( #140, #265 ) ) ;
#287 = SECURITY_CLASSIFICATION ( '', '', #246 ) ;
#288 = EDGE_CURVE ( 'NONE', #219, #224, #80, .T. ) ;
#289 = ORIENTED_EDGE ( 'NONE', *, *, #190, .T. ) ;
#290 = VERTEX_POINT ( 'NONE', #18 ) ;
#291 = DATE_TIME_ROLE ( 'creation_date' ) ;
#292 = EDGE_LOOP ( 'NONE', ( #65, #24, #289, #121 ) ) ;
#293 = APPROVAL_DATE_TIME ( #216, #184 ) ;
#294 = EDGE_LOOP ( 'NONE', ( #95, #238 ) ) ;
#295 = DIRECTION ( 'NONE',  ( 0.000000000000000000, 0.000000000000000000, 1.000000000000000000 ) ) ;
#296 = DIRECTION ( 'NONE',  ( 0.000000000000000000, 0.000000000000000000, 1.000000000000000000 ) ) ;
#297 = DIRECTION ( 'NONE',  ( 1.000000000000000000, 0.000000000000000000, -0.000000000000000000 ) ) ;
#298 = FACE_OUTER_BOUND ( 'NONE', #116, .T. ) ;
#299 = CARTESIAN_POINT ( 'NONE',  ( 8.000000000000000000, 9.797174393178825657E-16, 5.000000000000000000 ) ) ;
#300 = DIRECTION ( 'NONE',  ( 1.000000000000000000, 0.000000000000000000, -0.000000000000000000 ) ) ;
#301 = EDGE_CURVE ( 'NONE', #224, #89, #105, .T. ) ;
#302 = LINE ( 'NONE', #183, #52 ) ;
#303 = APPROVAL_STATUS ( 'not_yet_approved' ) ;
#304 = CARTESIAN_POINT ( 'NONE',  ( 0.000000000000000000, 0.000000000000000000, 405.0000000000000000 ) ) ;
#305 = CARTESIAN_POINT ( 'NONE',  ( -8.000000000000000000, 0.000000000000000000, 5.000000000000000000 ) ) ;
#306 = ADVANCED_FACE ( 'NONE', ( #60 ), #41, .T. ) ;
#307 = AXIS2_PLACEMENT_3D ( 'NONE', #84, #156, #234 ) ;
ENDSEC;
END-ISO-10303-21;
