ISO-10303-21;
HEADER;
FILE_DESCRIPTION (( 'STEP AP203' ),
    '1' );
FILE_NAME ('4e2f.STEP',
    '2022-06-20T09:47:08',
    ( '' ),
    ( '' ),
    'SwSTEP 2.0',
    'SolidWorks 2019',
    '' );
FILE_SCHEMA (( 'CONFIG_CONTROL_DESIGN' ));
ENDSEC;

DATA;
#1 = CARTESIAN_POINT ( 'NONE',  ( 4.099999999999999645, 5.021051876504147385E-16, 5.200000000000009948 ) ) ;
#2 = CIRCLE ( 'NONE', #173, 7.000000000000000000 ) ;
#3 = EDGE_CURVE ( 'NONE', #102, #218, #281, .T. ) ;
#4 = PRODUCT ( '4e2f', '4e2f', '', ( #298 ) ) ;
#5 = DIRECTION ( 'NONE',  ( 0.000000000000000000, 0.000000000000000000, 1.000000000000000000 ) ) ;
#6 = PRODUCT_DEFINITION ( 'NEZNÁMÝ', '', #187, #80 ) ;
#7 = ORIENTED_EDGE ( 'NONE', *, *, #127, .F. ) ;
#8 = DIRECTION ( 'NONE',  ( 1.000000000000000000, 0.000000000000000000, 0.000000000000000000 ) ) ;
#9 = VERTEX_POINT ( 'NONE', #36 ) ;
#10 =( NAMED_UNIT ( * ) PLANE_ANGLE_UNIT ( ) SI_UNIT ( $, .RADIAN. ) );
#11 = ORIENTED_EDGE ( 'NONE', *, *, #18, .F. ) ;
#12 = EDGE_LOOP ( 'NONE', ( #276, #277, #224, #244 ) ) ;
#13 = CC_DESIGN_PERSON_AND_ORGANIZATION_ASSIGNMENT ( #20, #14, ( #187 ) ) ;
#14 = PERSON_AND_ORGANIZATION_ROLE ( 'creator' ) ;
#15 = DIRECTION ( 'NONE',  ( 1.000000000000000000, 0.000000000000000000, 0.000000000000000000 ) ) ;
#16 = LOCAL_TIME ( 11, 47, 8.000000000000000000, #186 ) ;
#17 = DIRECTION ( 'NONE',  ( -0.000000000000000000, -0.000000000000000000, -1.000000000000000000 ) ) ;
#18 = EDGE_CURVE ( 'NONE', #218, #102, #239, .T. ) ;
#19 = VECTOR ( 'NONE', #171, 1000.000000000000000 ) ;
#20 = PERSON_AND_ORGANIZATION ( #83, #95 ) ;
#21 = DIRECTION ( 'NONE',  ( 1.000000000000000000, 0.000000000000000000, 0.000000000000000000 ) ) ;
#22 = CARTESIAN_POINT ( 'NONE',  ( 0.000000000000000000, 0.000000000000000000, 5.000000000000000000 ) ) ;
#23 = AXIS2_PLACEMENT_3D ( 'NONE', #66, #96, #166 ) ;
#24 = LINE ( 'NONE', #211, #199 ) ;
#25 = CARTESIAN_POINT ( 'NONE',  ( -4.299999999999998934, 5.265981236333617484E-16, 5.200000000000009948 ) ) ;
#26 = MANIFOLD_SOLID_BREP ( 'Zaoblit1', #248 ) ;
#27 = AXIS2_PLACEMENT_3D ( 'NONE', #184, #230, #117 ) ;
#28 = EDGE_CURVE ( 'NONE', #267, #203, #256, .T. ) ;
#29 = CARTESIAN_POINT ( 'NONE',  ( 0.000000000000000000, 0.000000000000000000, 205.0000000000000284 ) ) ;
#30 = CC_DESIGN_PERSON_AND_ORGANIZATION_ASSIGNMENT ( #48, #90, ( #187 ) ) ;
#31 = AXIS2_PLACEMENT_3D ( 'NONE', #22, #45, #21 ) ;
#32 = DIRECTION ( 'NONE',  ( 1.000000000000000000, 0.000000000000000000, -0.000000000000000000 ) ) ;
#33 = ORIENTED_EDGE ( 'NONE', *, *, #183, .T. ) ;
#34 = CARTESIAN_POINT ( 'NONE',  ( -7.000000000000000000, 0.000000000000000000, 5.000000000000000000 ) ) ;
#35 = PRODUCT_DEFINITION_SHAPE ( 'NONE', 'NONE',  #6 ) ;
#36 = CARTESIAN_POINT ( 'NONE',  ( -4.299999999999998934, 5.265981236333617484E-16, 5.000000000000005329 ) ) ;
#37 = EDGE_CURVE ( 'NONE', #128, #203, #293, .T. ) ;
#38 = ORIENTED_EDGE ( 'NONE', *, *, #37, .T. ) ;
#39 = AXIS2_PLACEMENT_3D ( 'NONE', #192, #76, #32 ) ;
#40 = LOCAL_TIME ( 11, 47, 8.000000000000000000, #115 ) ;
#41 = ORIENTED_EDGE ( 'NONE', *, *, #18, .T. ) ;
#42 = DATE_AND_TIME ( #229, #40 ) ;
#43 = EDGE_CURVE ( 'NONE', #102, #86, #123, .T. ) ;
#44 = ORIENTED_EDGE ( 'NONE', *, *, #233, .T. ) ;
#45 = DIRECTION ( 'NONE',  ( -0.000000000000000000, -0.000000000000000000, -1.000000000000000000 ) ) ;
#46 = SECURITY_CLASSIFICATION_LEVEL ( 'unclassified' ) ;
#47 = APPROVAL_STATUS ( 'not_yet_approved' ) ;
#48 = PERSON_AND_ORGANIZATION ( #83, #95 ) ;
#49 = DIRECTION ( 'NONE',  ( -0.000000000000000000, -0.000000000000000000, -1.000000000000000000 ) ) ;
#50 = TOROIDAL_SURFACE ( 'NONE', #93, 4.299999999999998934, 0.2000000000000000111 ) ;
#51 = ORIENTED_EDGE ( 'NONE', *, *, #225, .T. ) ;
#52 = FACE_OUTER_BOUND ( 'NONE', #153, .T. ) ;
#53 = VECTOR ( 'NONE', #49, 1000.000000000000000 ) ;
#54 = DIRECTION ( 'NONE',  ( 1.000000000000000000, 0.000000000000000000, 0.000000000000000000 ) ) ;
#55 = DIRECTION ( 'NONE',  ( 0.000000000000000000, 0.000000000000000000, 1.000000000000000000 ) ) ;
#56 = APPROVAL_PERSON_ORGANIZATION ( #68, #197, #227 ) ;
#57 = ORIENTED_EDGE ( 'NONE', *, *, #78, .F. ) ;
#58 = DIRECTION ( 'NONE',  ( -1.000000000000000000, 0.000000000000000000, 0.000000000000000000 ) ) ;
#59 = EDGE_CURVE ( 'NONE', #9, #198, #193, .T. ) ;
#60 = AXIS2_PLACEMENT_3D ( 'NONE', #307, #17, #260 ) ;
#61 = ORIENTED_EDGE ( 'NONE', *, *, #28, .F. ) ;
#62 = CIRCLE ( 'NONE', #201, 4.099999999999999645 ) ;
#63 = CC_DESIGN_SECURITY_CLASSIFICATION ( #111, ( #187 ) ) ;
#64 = DIRECTION ( 'NONE',  ( 0.000000000000000000, 0.000000000000000000, 1.000000000000000000 ) ) ;
#65 = DATE_AND_TIME ( #112, #202 ) ;
#66 = CARTESIAN_POINT ( 'NONE',  ( 0.000000000000000000, 0.000000000000000000, 205.0000000000000284 ) ) ;
#67 = CARTESIAN_POINT ( 'NONE',  ( 0.000000000000000000, 0.000000000000000000, 205.0000000000000284 ) ) ;
#68 = PERSON_AND_ORGANIZATION ( #83, #95 ) ;
#69 = AXIS2_PLACEMENT_3D ( 'NONE', #67, #167, #160 ) ;
#70 = CARTESIAN_POINT ( 'NONE',  ( 0.000000000000000000, 0.000000000000000000, 205.0000000000000284 ) ) ;
#71 = CALENDAR_DATE ( 2022, 20, 6 ) ;
#72 = CARTESIAN_POINT ( 'NONE',  ( 7.000000000000000000, 8.572527594031473190E-16, 0.000000000000000000 ) ) ;
#73 = PERSON_AND_ORGANIZATION ( #83, #95 ) ;
#74 = PLANE ( 'NONE',  #69 ) ;
#75 = ADVANCED_FACE ( 'NONE', ( #180 ), #301, .T. ) ;
#76 = DIRECTION ( 'NONE',  ( 0.000000000000000000, 0.000000000000000000, 1.000000000000000000 ) ) ;
#77 = PLANE ( 'NONE',  #294 ) ;
#78 = EDGE_CURVE ( 'NONE', #86, #106, #204, .T. ) ;
#79 = ORIENTED_EDGE ( 'NONE', *, *, #169, .T. ) ;
#80 = DESIGN_CONTEXT ( 'detailed design', #135, 'design' ) ;
#81 = CARTESIAN_POINT ( 'NONE',  ( -4.099999999999999645, 0.000000000000000000, 205.0000000000000284 ) ) ;
#82 = CARTESIAN_POINT ( 'NONE',  ( 0.000000000000000000, 0.000000000000000000, 5.200000000000009948 ) ) ;
#83 = PERSON ( 'NEURÈENÝ', 'NEURÈENÝ', 'NEURÈENÝ', ('NEURÈENÝ'), ('NEURÈENÝ'), ('NEURÈENÝ') ) ;
#84 = CIRCLE ( 'NONE', #23, 4.099999999999999645 ) ;
#85 = EDGE_LOOP ( 'NONE', ( #205, #11, #44, #176 ) ) ;
#86 = VERTEX_POINT ( 'NONE', #72 ) ;
#87 = EDGE_LOOP ( 'NONE', ( #154, #273, #148, #104 ) ) ;
#88 = CC_DESIGN_DATE_AND_TIME_ASSIGNMENT ( #139, #300, ( #111 ) ) ;
#89 = DIRECTION ( 'NONE',  ( 0.000000000000000000, 0.000000000000000000, 1.000000000000000000 ) ) ;
#90 = PERSON_AND_ORGANIZATION_ROLE ( 'design_supplier' ) ;
#91 = ADVANCED_FACE ( 'NONE', ( #190 ), #245, .F. ) ;
#92 = CARTESIAN_POINT ( 'NONE',  ( 0.000000000000000000, 0.000000000000000000, 0.000000000000000000 ) ) ;
#93 = AXIS2_PLACEMENT_3D ( 'NONE', #82, #172, #54 ) ;
#94 = DIRECTION ( 'NONE',  ( 1.000000000000000000, 0.000000000000000000, 0.000000000000000000 ) ) ;
#95 = ORGANIZATION ( 'NEURÈENÝ', 'NEURÈENÝ', '' ) ;
#96 = DIRECTION ( 'NONE',  ( 0.000000000000000000, 0.000000000000000000, 1.000000000000000000 ) ) ;
#97 = APPROVAL ( #261, 'NEURÈENÝ' ) ;
#98 = DIRECTION ( 'NONE',  ( 1.000000000000000000, 0.000000000000000000, -0.000000000000000000 ) ) ;
#99 = EDGE_LOOP ( 'NONE', ( #122, #107, #38, #33 ) ) ;
#100 = EDGE_CURVE ( 'NONE', #219, #267, #24, .T. ) ;
#101 = FACE_OUTER_BOUND ( 'NONE', #12, .T. ) ;
#102 = VERTEX_POINT ( 'NONE', #262 ) ;
#103 = CYLINDRICAL_SURFACE ( 'NONE', #109, 4.099999999999999645 ) ;
#104 = ORIENTED_EDGE ( 'NONE', *, *, #233, .F. ) ;
#105 = AXIS2_PLACEMENT_3D ( 'NONE', #25, #194, #142 ) ;
#106 = VERTEX_POINT ( 'NONE', #136 ) ;
#107 = ORIENTED_EDGE ( 'NONE', *, *, #138, .F. ) ;
#108 = EDGE_LOOP ( 'NONE', ( #170, #57 ) ) ;
#109 = AXIS2_PLACEMENT_3D ( 'NONE', #29, #290, #58 ) ;
#110 = PERSON_AND_ORGANIZATION ( #83, #95 ) ;
#111 = SECURITY_CLASSIFICATION ( '', '', #46 ) ;
#112 = CALENDAR_DATE ( 2022, 20, 6 ) ;
#113 = AXIS2_PLACEMENT_3D ( 'NONE', #243, #5, #195 ) ;
#114 = CARTESIAN_POINT ( 'NONE',  ( -4.099999999999999645, 0.000000000000000000, 5.200000000000009948 ) ) ;
#115 = COORDINATED_UNIVERSAL_TIME_OFFSET ( 1, 0, .AHEAD. ) ;
#116 = EDGE_CURVE ( 'NONE', #106, #86, #2, .T. ) ;
#117 = DIRECTION ( 'NONE',  ( 1.000000000000000000, 0.000000000000000000, 0.000000000000000000 ) ) ;
#118 = DIRECTION ( 'NONE',  ( -1.000000000000000000, 0.000000000000000000, 0.000000000000000000 ) ) ;
#119 = APPLICATION_CONTEXT ( 'configuration controlled 3d designs of mechanical parts and assemblies' ) ;
#120 = DIRECTION ( 'NONE',  ( 0.000000000000000000, 0.000000000000000000, 1.000000000000000000 ) ) ;
#121 = ADVANCED_BREP_SHAPE_REPRESENTATION ( '4e2f', ( #26, #247 ), #212 ) ;
#122 = ORIENTED_EDGE ( 'NONE', *, *, #100, .F. ) ;
#123 = LINE ( 'NONE', #296, #53 ) ;
#124 = UNCERTAINTY_MEASURE_WITH_UNIT (LENGTH_MEASURE( 1.000000000000000082E-05 ), #249, 'distance_accuracy_value', 'NONE');
#125 = APPROVAL ( #258, 'NEURÈENÝ' ) ;
#126 = AXIS2_PLACEMENT_3D ( 'NONE', #178, #279, #188 ) ;
#127 = EDGE_CURVE ( 'NONE', #267, #198, #151, .T. ) ;
#128 = VERTEX_POINT ( 'NONE', #237 ) ;
#129 = CC_DESIGN_APPROVAL ( #197, ( #111 ) ) ;
#130 = ORIENTED_EDGE ( 'NONE', *, *, #225, .F. ) ;
#131 = CARTESIAN_POINT ( 'NONE',  ( 0.000000000000000000, 0.000000000000000000, 5.000000000000000000 ) ) ;
#132 = AXIS2_PLACEMENT_3D ( 'NONE', #177, #64, #254 ) ;
#133 = DIRECTION ( 'NONE',  ( 1.000000000000000000, 0.000000000000000000, 0.000000000000000000 ) ) ;
#134 = PERSON_AND_ORGANIZATION_ROLE ( 'classification_officer' ) ;
#135 = APPLICATION_CONTEXT ( 'configuration controlled 3d designs of mechanical parts and assemblies' ) ;
#136 = CARTESIAN_POINT ( 'NONE',  ( -7.000000000000000000, 0.000000000000000000, 0.000000000000000000 ) ) ;
#137 = DATE_AND_TIME ( #162, #213 ) ;
#138 = EDGE_CURVE ( 'NONE', #128, #219, #84, .T. ) ;
#139 = DATE_AND_TIME ( #209, #278 ) ;
#140 = CC_DESIGN_APPROVAL ( #97, ( #6 ) ) ;
#141 = DIRECTION ( 'NONE',  ( -1.000000000000000000, 0.000000000000000000, 0.000000000000000000 ) ) ;
#142 = DIRECTION ( 'NONE',  ( -1.000000000000000000, 1.224646799147353454E-16, 0.000000000000000000 ) ) ;
#143 = FACE_BOUND ( 'NONE', #228, .T. ) ;
#144 = AXIS2_PLACEMENT_3D ( 'NONE', #70, #264, #163 ) ;
#145 = DIRECTION ( 'NONE',  ( 1.000000000000000000, 0.000000000000000000, 0.000000000000000000 ) ) ;
#146 = APPROVAL_DATE_TIME ( #137, #197 ) ;
#147 = CARTESIAN_POINT ( 'NONE',  ( 4.099999999999999645, 5.021051876504147385E-16, 205.0000000000000284 ) ) ;
#148 = ORIENTED_EDGE ( 'NONE', *, *, #78, .T. ) ;
#149 = AXIS2_PLACEMENT_3D ( 'NONE', #207, #305, #133 ) ;
#150 = CARTESIAN_POINT ( 'NONE',  ( 0.000000000000000000, 0.000000000000000000, 5.000000000000000000 ) ) ;
#151 = CIRCLE ( 'NONE', #126, 0.1999999999999996503 ) ;
#152 = APPLICATION_PROTOCOL_DEFINITION ( 'international standard', 'config_control_design', 1994, #119 ) ;
#153 = EDGE_LOOP ( 'NONE', ( #130, #61, #265, #288 ) ) ;
#154 = ORIENTED_EDGE ( 'NONE', *, *, #3, .F. ) ;
#155 = EDGE_LOOP ( 'NONE', ( #41, #299 ) ) ;
#156 = DATE_TIME_ROLE ( 'creation_date' ) ;
#157 = CARTESIAN_POINT ( 'NONE',  ( 0.000000000000000000, 0.000000000000000000, 205.0000000000000284 ) ) ;
#158 = AXIS2_PLACEMENT_3D ( 'NONE', #257, #285, #141 ) ;
#159 = APPROVAL_ROLE ( '' ) ;
#160 = DIRECTION ( 'NONE',  ( 1.000000000000000000, 0.000000000000000000, -0.000000000000000000 ) ) ;
#161 = CIRCLE ( 'NONE', #31, 4.299999999999998934 ) ;
#162 = CALENDAR_DATE ( 2022, 20, 6 ) ;
#163 = DIRECTION ( 'NONE',  ( -1.000000000000000000, 0.000000000000000000, 0.000000000000000000 ) ) ;
#164 = EDGE_CURVE ( 'NONE', #198, #9, #161, .T. ) ;
#165 = COORDINATED_UNIVERSAL_TIME_OFFSET ( 1, 0, .AHEAD. ) ;
#166 = DIRECTION ( 'NONE',  ( 1.000000000000000000, 0.000000000000000000, 0.000000000000000000 ) ) ;
#167 = DIRECTION ( 'NONE',  ( 0.000000000000000000, 0.000000000000000000, 1.000000000000000000 ) ) ;
#168 = CARTESIAN_POINT ( 'NONE',  ( -7.000000000000000000, 0.000000000000000000, 5.000000000000000000 ) ) ;
#169 = EDGE_CURVE ( 'NONE', #219, #128, #62, .T. ) ;
#170 = ORIENTED_EDGE ( 'NONE', *, *, #116, .F. ) ;
#171 = DIRECTION ( 'NONE',  ( -0.000000000000000000, -0.000000000000000000, -1.000000000000000000 ) ) ;
#172 = DIRECTION ( 'NONE',  ( 0.000000000000000000, 0.000000000000000000, 1.000000000000000000 ) ) ;
#173 = AXIS2_PLACEMENT_3D ( 'NONE', #92, #89, #214 ) ;
#174 = CC_DESIGN_PERSON_AND_ORGANIZATION_ASSIGNMENT ( #189, #286, ( #4 ) ) ;
#175 = ORIENTED_EDGE ( 'NONE', *, *, #164, .T. ) ;
#176 = ORIENTED_EDGE ( 'NONE', *, *, #116, .T. ) ;
#177 = CARTESIAN_POINT ( 'NONE',  ( 0.000000000000000000, 0.000000000000000000, 5.000000000000000000 ) ) ;
#178 = CARTESIAN_POINT ( 'NONE',  ( 4.299999999999998934, 0.000000000000000000, 5.200000000000009948 ) ) ;
#179 = COORDINATED_UNIVERSAL_TIME_OFFSET ( 1, 0, .AHEAD. ) ;
#180 = FACE_OUTER_BOUND ( 'NONE', #85, .T. ) ;
#181 = AXIS2_PLACEMENT_3D ( 'NONE', #131, #55, #145 ) ;
#182 = COORDINATED_UNIVERSAL_TIME_OFFSET ( 1, 0, .AHEAD. ) ;
#183 = EDGE_CURVE ( 'NONE', #203, #267, #185, .T. ) ;
#184 = CARTESIAN_POINT ( 'NONE',  ( 0.000000000000000000, 0.000000000000000000, 0.000000000000000000 ) ) ;
#185 = CIRCLE ( 'NONE', #208, 4.099999999999999645 ) ;
#186 = COORDINATED_UNIVERSAL_TIME_OFFSET ( 1, 0, .AHEAD. ) ;
#187 = PRODUCT_DEFINITION_FORMATION_WITH_SPECIFIED_SOURCE ( 'LIBOVOLNÝ', '', #4, .NOT_KNOWN. ) ;
#188 = DIRECTION ( 'NONE',  ( 0.000000000000000000, 0.000000000000000000, -1.000000000000000000 ) ) ;
#189 = PERSON_AND_ORGANIZATION ( #83, #95 ) ;
#190 = FACE_OUTER_BOUND ( 'NONE', #269, .T. ) ;
#191 = APPROVAL_PERSON_ORGANIZATION ( #236, #125, #302 ) ;
#192 = CARTESIAN_POINT ( 'NONE',  ( 0.000000000000000000, 0.000000000000000000, 5.000000000000000000 ) ) ;
#193 = CIRCLE ( 'NONE', #60, 4.299999999999998934 ) ;
#194 = DIRECTION ( 'NONE',  ( 1.224646799147353207E-16, 1.000000000000000000, -0.000000000000000000 ) ) ;
#195 = DIRECTION ( 'NONE',  ( 1.000000000000000000, 0.000000000000000000, 0.000000000000000000 ) ) ;
#196 = APPROVAL_PERSON_ORGANIZATION ( #73, #97, #159 ) ;
#197 = APPROVAL ( #47, 'NEURÈENÝ' ) ;
#198 = VERTEX_POINT ( 'NONE', #282 ) ;
#199 = VECTOR ( 'NONE', #259, 1000.000000000000000 ) ;
#200 = ADVANCED_FACE ( 'NONE', ( #210 ), #74, .T. ) ;
#201 = AXIS2_PLACEMENT_3D ( 'NONE', #157, #287, #94 ) ;
#202 = LOCAL_TIME ( 11, 47, 8.000000000000000000, #165 ) ;
#203 = VERTEX_POINT ( 'NONE', #114 ) ;
#204 = CIRCLE ( 'NONE', #27, 7.000000000000000000 ) ;
#205 = ORIENTED_EDGE ( 'NONE', *, *, #43, .F. ) ;
#206 = DATE_AND_TIME ( #71, #16 ) ;
#207 = CARTESIAN_POINT ( 'NONE',  ( 0.000000000000000000, 0.000000000000000000, 5.200000000000009948 ) ) ;
#208 = AXIS2_PLACEMENT_3D ( 'NONE', #303, #283, #15 ) ;
#209 = CALENDAR_DATE ( 2022, 20, 6 ) ;
#210 = FACE_OUTER_BOUND ( 'NONE', #226, .T. ) ;
#211 = CARTESIAN_POINT ( 'NONE',  ( 4.099999999999999645, 5.021051876504147385E-16, 205.0000000000000284 ) ) ;
#212 =( GEOMETRIC_REPRESENTATION_CONTEXT ( 3 ) GLOBAL_UNCERTAINTY_ASSIGNED_CONTEXT ( ( #124 ) ) GLOBAL_UNIT_ASSIGNED_CONTEXT ( ( #249, #10, #221 ) ) REPRESENTATION_CONTEXT ( 'NONE', 'WORKASPACE' ) );
#213 = LOCAL_TIME ( 11, 47, 8.000000000000000000, #179 ) ;
#214 = DIRECTION ( 'NONE',  ( 1.000000000000000000, 0.000000000000000000, 0.000000000000000000 ) ) ;
#215 = LINE ( 'NONE', #168, #284 ) ;
#216 = ADVANCED_FACE ( 'NONE', ( #235 ), #232, .T. ) ;
#217 = FACE_OUTER_BOUND ( 'NONE', #108, .T. ) ;
#218 = VERTEX_POINT ( 'NONE', #34 ) ;
#219 = VERTEX_POINT ( 'NONE', #147 ) ;
#220 = AXIS2_PLACEMENT_3D ( 'NONE', #150, #246, #118 ) ;
#221 =( NAMED_UNIT ( * ) SI_UNIT ( $, .STERADIAN. ) SOLID_ANGLE_UNIT ( ) );
#222 = ADVANCED_FACE ( 'NONE', ( #101 ), #103, .T. ) ;
#223 = PRODUCT_RELATED_PRODUCT_CATEGORY ( 'detail', '', ( #4 ) ) ;
#224 = ORIENTED_EDGE ( 'NONE', *, *, #28, .T. ) ;
#225 = EDGE_CURVE ( 'NONE', #203, #9, #241, .T. ) ;
#226 = EDGE_LOOP ( 'NONE', ( #251, #79 ) ) ;
#227 = APPROVAL_ROLE ( '' ) ;
#228 = EDGE_LOOP ( 'NONE', ( #175, #263 ) ) ;
#229 = CALENDAR_DATE ( 2022, 20, 6 ) ;
#230 = DIRECTION ( 'NONE',  ( 0.000000000000000000, 0.000000000000000000, 1.000000000000000000 ) ) ;
#231 = PERSON_AND_ORGANIZATION_ROLE ( 'creator' ) ;
#232 = CYLINDRICAL_SURFACE ( 'NONE', #144, 4.099999999999999645 ) ;
#233 = EDGE_CURVE ( 'NONE', #218, #106, #215, .T. ) ;
#234 = APPROVAL_DATE_TIME ( #206, #97 ) ;
#235 = FACE_OUTER_BOUND ( 'NONE', #99, .T. ) ;
#236 = PERSON_AND_ORGANIZATION ( #83, #95 ) ;
#237 = CARTESIAN_POINT ( 'NONE',  ( -4.099999999999999645, 0.000000000000000000, 205.0000000000000284 ) ) ;
#238 = CC_DESIGN_DATE_AND_TIME_ASSIGNMENT ( #65, #156, ( #6 ) ) ;
#239 = CIRCLE ( 'NONE', #181, 7.000000000000000000 ) ;
#240 = FACE_OUTER_BOUND ( 'NONE', #87, .T. ) ;
#241 = CIRCLE ( 'NONE', #105, 0.1999999999999996503 ) ;
#242 = FACE_OUTER_BOUND ( 'NONE', #155, .T. ) ;
#243 = CARTESIAN_POINT ( 'NONE',  ( 0.000000000000000000, 0.000000000000000000, 5.200000000000009948 ) ) ;
#244 = ORIENTED_EDGE ( 'NONE', *, *, #37, .F. ) ;
#245 = TOROIDAL_SURFACE ( 'NONE', #149, 4.299999999999998934, 0.2000000000000000111 ) ;
#246 = DIRECTION ( 'NONE',  ( -0.000000000000000000, -0.000000000000000000, -1.000000000000000000 ) ) ;
#247 = AXIS2_PLACEMENT_3D ( 'NONE', #297, #275, #8 ) ;
#248 = CLOSED_SHELL ( 'NONE', ( #91, #222, #280, #75, #304, #271, #216, #200, #274 ) ) ;
#249 =( LENGTH_UNIT ( ) NAMED_UNIT ( * ) SI_UNIT ( .MILLI., .METRE. ) );
#250 = ORIENTED_EDGE ( 'NONE', *, *, #164, .F. ) ;
#251 = ORIENTED_EDGE ( 'NONE', *, *, #138, .T. ) ;
#252 = CC_DESIGN_PERSON_AND_ORGANIZATION_ASSIGNMENT ( #110, #134, ( #111 ) ) ;
#253 = PERSON_AND_ORGANIZATION ( #83, #95 ) ;
#254 = DIRECTION ( 'NONE',  ( 1.000000000000000000, 0.000000000000000000, 0.000000000000000000 ) ) ;
#255 = APPROVAL_DATE_TIME ( #42, #125 ) ;
#256 = CIRCLE ( 'NONE', #113, 4.099999999999999645 ) ;
#257 = CARTESIAN_POINT ( 'NONE',  ( 0.000000000000000000, 0.000000000000000000, 5.000000000000000000 ) ) ;
#258 = APPROVAL_STATUS ( 'not_yet_approved' ) ;
#259 = DIRECTION ( 'NONE',  ( -0.000000000000000000, -0.000000000000000000, -1.000000000000000000 ) ) ;
#260 = DIRECTION ( 'NONE',  ( 1.000000000000000000, 0.000000000000000000, 0.000000000000000000 ) ) ;
#261 = APPROVAL_STATUS ( 'not_yet_approved' ) ;
#262 = CARTESIAN_POINT ( 'NONE',  ( 7.000000000000000000, 8.572527594031473190E-16, 5.000000000000000000 ) ) ;
#263 = ORIENTED_EDGE ( 'NONE', *, *, #59, .T. ) ;
#264 = DIRECTION ( 'NONE',  ( -0.000000000000000000, -0.000000000000000000, -1.000000000000000000 ) ) ;
#265 = ORIENTED_EDGE ( 'NONE', *, *, #127, .T. ) ;
#266 = CARTESIAN_POINT ( 'NONE',  ( 0.000000000000000000, 0.000000000000000000, 0.000000000000000000 ) ) ;
#267 = VERTEX_POINT ( 'NONE', #1 ) ;
#268 = PLANE ( 'NONE',  #39 ) ;
#269 = EDGE_LOOP ( 'NONE', ( #291, #51, #250, #7 ) ) ;
#270 = CYLINDRICAL_SURFACE ( 'NONE', #220, 7.000000000000000000 ) ;
#271 = ADVANCED_FACE ( 'NONE', ( #217 ), #77, .F. ) ;
#272 = CC_DESIGN_APPROVAL ( #125, ( #187 ) ) ;
#273 = ORIENTED_EDGE ( 'NONE', *, *, #43, .T. ) ;
#274 = ADVANCED_FACE ( 'NONE', ( #52 ), #50, .F. ) ;
#275 = DIRECTION ( 'NONE',  ( 0.000000000000000000, 0.000000000000000000, 1.000000000000000000 ) ) ;
#276 = ORIENTED_EDGE ( 'NONE', *, *, #169, .F. ) ;
#277 = ORIENTED_EDGE ( 'NONE', *, *, #100, .T. ) ;
#278 = LOCAL_TIME ( 11, 47, 8.000000000000000000, #182 ) ;
#279 = DIRECTION ( 'NONE',  ( 0.000000000000000000, -1.000000000000000000, 0.000000000000000000 ) ) ;
#280 = ADVANCED_FACE ( 'NONE', ( #240 ), #270, .T. ) ;
#281 = CIRCLE ( 'NONE', #132, 7.000000000000000000 ) ;
#282 = CARTESIAN_POINT ( 'NONE',  ( 4.299999999999998934, 0.000000000000000000, 5.000000000000005329 ) ) ;
#283 = DIRECTION ( 'NONE',  ( 0.000000000000000000, 0.000000000000000000, 1.000000000000000000 ) ) ;
#284 = VECTOR ( 'NONE', #292, 1000.000000000000000 ) ;
#285 = DIRECTION ( 'NONE',  ( -0.000000000000000000, -0.000000000000000000, -1.000000000000000000 ) ) ;
#286 = PERSON_AND_ORGANIZATION_ROLE ( 'design_owner' ) ;
#287 = DIRECTION ( 'NONE',  ( 0.000000000000000000, 0.000000000000000000, 1.000000000000000000 ) ) ;
#288 = ORIENTED_EDGE ( 'NONE', *, *, #59, .F. ) ;
#289 = SHAPE_DEFINITION_REPRESENTATION ( #35, #121 ) ;
#290 = DIRECTION ( 'NONE',  ( -0.000000000000000000, -0.000000000000000000, -1.000000000000000000 ) ) ;
#291 = ORIENTED_EDGE ( 'NONE', *, *, #183, .F. ) ;
#292 = DIRECTION ( 'NONE',  ( -0.000000000000000000, -0.000000000000000000, -1.000000000000000000 ) ) ;
#293 = LINE ( 'NONE', #81, #19 ) ;
#294 = AXIS2_PLACEMENT_3D ( 'NONE', #266, #120, #98 ) ;
#295 = CC_DESIGN_PERSON_AND_ORGANIZATION_ASSIGNMENT ( #253, #231, ( #6 ) ) ;
#296 = CARTESIAN_POINT ( 'NONE',  ( 7.000000000000000000, 8.572527594031473190E-16, 5.000000000000000000 ) ) ;
#297 = CARTESIAN_POINT ( 'NONE',  ( 0.000000000000000000, 0.000000000000000000, 0.000000000000000000 ) ) ;
#298 = MECHANICAL_CONTEXT ( 'NONE', #119, 'mechanical' ) ;
#299 = ORIENTED_EDGE ( 'NONE', *, *, #3, .T. ) ;
#300 = DATE_TIME_ROLE ( 'classification_date' ) ;
#301 = CYLINDRICAL_SURFACE ( 'NONE', #158, 7.000000000000000000 ) ;
#302 = APPROVAL_ROLE ( '' ) ;
#303 = CARTESIAN_POINT ( 'NONE',  ( 0.000000000000000000, 0.000000000000000000, 5.200000000000009948 ) ) ;
#304 = ADVANCED_FACE ( 'NONE', ( #143, #242 ), #268, .T. ) ;
#305 = DIRECTION ( 'NONE',  ( 0.000000000000000000, 0.000000000000000000, 1.000000000000000000 ) ) ;
#306 = APPLICATION_PROTOCOL_DEFINITION ( 'international standard', 'config_control_design', 1994, #135 ) ;
#307 = CARTESIAN_POINT ( 'NONE',  ( 0.000000000000000000, 0.000000000000000000, 5.000000000000000000 ) ) ;
ENDSEC;
END-ISO-10303-21;
