ISO-10303-21;
HEADER;
FILE_DESCRIPTION (( 'STEP AP203' ),
    '1' );
FILE_NAME ('3d72.STEP',
    '2022-06-20T10:04:41',
    ( '' ),
    ( '' ),
    'SwSTEP 2.0',
    'SolidWorks 2019',
    '' );
FILE_SCHEMA (( 'CONFIG_CONTROL_DESIGN' ));
ENDSEC;

DATA;
#1 = ORIENTED_EDGE ( 'NONE', *, *, #257, .T. ) ;
#2 = ORIENTED_EDGE ( 'NONE', *, *, #141, .T. ) ;
#3 = VERTEX_POINT ( 'NONE', #54 ) ;
#4 = CIRCLE ( 'NONE', #235, 4.000000000000000000 ) ;
#5 = PRODUCT_DEFINITION_FORMATION_WITH_SPECIFIED_SOURCE ( 'LIBOVOLNÝ', '', #167, .NOT_KNOWN. ) ;
#6 = ORIENTED_EDGE ( 'NONE', *, *, #293, .T. ) ;
#7 = ADVANCED_FACE ( 'NONE', ( #147 ), #91, .F. ) ;
#8 = ORIENTED_EDGE ( 'NONE', *, *, #208, .F. ) ;
#9 = CARTESIAN_POINT ( 'NONE',  ( 0.000000000000000000, 0.000000000000000000, 3.199999999999980638 ) ) ;
#10 = PLANE ( 'NONE',  #171 ) ;
#11 = CARTESIAN_POINT ( 'NONE',  ( -4.000000000000000000, 0.000000000000000000, 0.000000000000000000 ) ) ;
#12 = PERSON_AND_ORGANIZATION ( #267, #44 ) ;
#13 = DIRECTION ( 'NONE',  ( -0.000000000000000000, -0.000000000000000000, -1.000000000000000000 ) ) ;
#14 = CARTESIAN_POINT ( 'NONE',  ( 0.000000000000000000, 0.000000000000000000, 0.000000000000000000 ) ) ;
#15 = CC_DESIGN_APPROVAL ( #288, ( #116 ) ) ;
#16 = CYLINDRICAL_SURFACE ( 'NONE', #213, 4.000000000000000000 ) ;
#17 = PERSON_AND_ORGANIZATION ( #267, #44 ) ;
#18 = LINE ( 'NONE', #276, #67 ) ;
#19 = APPLICATION_CONTEXT ( 'configuration controlled 3d designs of mechanical parts and assemblies' ) ;
#20 = APPLICATION_PROTOCOL_DEFINITION ( 'international standard', 'config_control_design', 1994, #19 ) ;
#21 = CC_DESIGN_DATE_AND_TIME_ASSIGNMENT ( #201, #127, ( #101 ) ) ;
#22 = CYLINDRICAL_SURFACE ( 'NONE', #121, 2.250000000000000000 ) ;
#23 = CLOSED_SHELL ( 'NONE', ( #7, #247, #299, #57, #168, #238, #306, #71, #233 ) ) ;
#24 = CARTESIAN_POINT ( 'NONE',  ( 0.000000000000000000, 0.000000000000000000, 0.000000000000000000 ) ) ;
#25 = AXIS2_PLACEMENT_3D ( 'NONE', #78, #102, #128 ) ;
#26 = ORIENTED_EDGE ( 'NONE', *, *, #295, .F. ) ;
#27 = ORIENTED_EDGE ( 'NONE', *, *, #28, .F. ) ;
#28 = EDGE_CURVE ( 'NONE', #148, #98, #129, .T. ) ;
#29 = DIRECTION ( 'NONE',  ( 1.000000000000000000, 0.000000000000000000, 0.000000000000000000 ) ) ;
#30 = CARTESIAN_POINT ( 'NONE',  ( 0.000000000000000000, 0.000000000000000000, 803.0000000000000000 ) ) ;
#31 =( GEOMETRIC_REPRESENTATION_CONTEXT ( 3 ) GLOBAL_UNCERTAINTY_ASSIGNED_CONTEXT ( ( #277 ) ) GLOBAL_UNIT_ASSIGNED_CONTEXT ( ( #228, #210, #131 ) ) REPRESENTATION_CONTEXT ( 'NONE', 'WORKASPACE' ) );
#32 = APPLICATION_PROTOCOL_DEFINITION ( 'international standard', 'config_control_design', 1994, #298 ) ;
#33 = CARTESIAN_POINT ( 'NONE',  ( 0.000000000000000000, 0.000000000000000000, 3.000000000000000000 ) ) ;
#34 = DIRECTION ( 'NONE',  ( 1.000000000000000000, 0.000000000000000000, 0.000000000000000000 ) ) ;
#35 = FACE_BOUND ( 'NONE', #149, .T. ) ;
#36 = PERSON_AND_ORGANIZATION ( #267, #44 ) ;
#37 = AXIS2_PLACEMENT_3D ( 'NONE', #254, #186, #89 ) ;
#38 = LOCAL_TIME ( 12, 4, 41.00000000000000000, #269 ) ;
#39 = FACE_OUTER_BOUND ( 'NONE', #50, .T. ) ;
#40 = VERTEX_POINT ( 'NONE', #11 ) ;
#41 = CARTESIAN_POINT ( 'NONE',  ( 0.000000000000000000, 0.000000000000000000, 3.000000000000000000 ) ) ;
#42 = DIRECTION ( 'NONE',  ( -0.000000000000000000, -0.000000000000000000, -1.000000000000000000 ) ) ;
#43 = CIRCLE ( 'NONE', #115, 2.449999999999999734 ) ;
#44 = ORGANIZATION ( 'NEURÈENÝ', 'NEURÈENÝ', '' ) ;
#45 = APPROVAL ( #180, 'NEURÈENÝ' ) ;
#46 = DESIGN_CONTEXT ( 'detailed design', #298, 'design' ) ;
#47 = AXIS2_PLACEMENT_3D ( 'NONE', #41, #161, #273 ) ;
#48 = ORIENTED_EDGE ( 'NONE', *, *, #132, .F. ) ;
#49 = EDGE_CURVE ( 'NONE', #119, #97, #96, .T. ) ;
#50 = EDGE_LOOP ( 'NONE', ( #27, #145, #170, #75 ) ) ;
#51 = VERTEX_POINT ( 'NONE', #198 ) ;
#52 = APPROVAL ( #66, 'NEURÈENÝ' ) ;
#53 = VECTOR ( 'NONE', #172, 1000.000000000000000 ) ;
#54 = CARTESIAN_POINT ( 'NONE',  ( 4.000000000000000000, 4.898587196589412829E-16, 0.000000000000000000 ) ) ;
#55 = EDGE_LOOP ( 'NONE', ( #215, #234, #144, #190 ) ) ;
#56 = CARTESIAN_POINT ( 'NONE',  ( 0.000000000000000000, 0.000000000000000000, 3.000000000000000000 ) ) ;
#57 = ADVANCED_FACE ( 'NONE', ( #289 ), #16, .T. ) ;
#58 = DIRECTION ( 'NONE',  ( 1.000000000000000000, 0.000000000000000000, 0.000000000000000000 ) ) ;
#59 = CARTESIAN_POINT ( 'NONE',  ( -2.250000000000000000, 0.000000000000000000, 3.199999999999980638 ) ) ;
#60 = TOROIDAL_SURFACE ( 'NONE', #280, 2.449999999999999734, 0.2000000000000000111 ) ;
#61 = DIRECTION ( 'NONE',  ( 1.000000000000000000, 0.000000000000000000, 0.000000000000000000 ) ) ;
#62 = CARTESIAN_POINT ( 'NONE',  ( 0.000000000000000000, 0.000000000000000000, 3.199999999999980638 ) ) ;
#63 = LINE ( 'NONE', #81, #307 ) ;
#64 = CALENDAR_DATE ( 2022, 20, 6 ) ;
#65 = CARTESIAN_POINT ( 'NONE',  ( 4.000000000000000000, 4.898587196589412829E-16, 3.000000000000000000 ) ) ;
#66 = APPROVAL_STATUS ( 'not_yet_approved' ) ;
#67 = VECTOR ( 'NONE', #42, 1000.000000000000000 ) ;
#68 = DIRECTION ( 'NONE',  ( -0.000000000000000000, -0.000000000000000000, -1.000000000000000000 ) ) ;
#69 = CYLINDRICAL_SURFACE ( 'NONE', #266, 2.250000000000000000 ) ;
#70 = AXIS2_PLACEMENT_3D ( 'NONE', #93, #232, #255 ) ;
#71 = ADVANCED_FACE ( 'NONE', ( #244 ), #292, .T. ) ;
#72 = CC_DESIGN_SECURITY_CLASSIFICATION ( #116, ( #5 ) ) ;
#73 = ORIENTED_EDGE ( 'NONE', *, *, #49, .T. ) ;
#74 = EDGE_LOOP ( 'NONE', ( #8, #100, #2, #26 ) ) ;
#75 = ORIENTED_EDGE ( 'NONE', *, *, #165, .F. ) ;
#76 = ORIENTED_EDGE ( 'NONE', *, *, #165, .T. ) ;
#77 = EDGE_LOOP ( 'NONE', ( #113, #195 ) ) ;
#78 = CARTESIAN_POINT ( 'NONE',  ( 0.000000000000000000, 0.000000000000000000, 803.0000000000000000 ) ) ;
#79 = DIRECTION ( 'NONE',  ( 1.000000000000000000, 0.000000000000000000, 0.000000000000000000 ) ) ;
#80 = APPROVAL_ROLE ( '' ) ;
#81 = CARTESIAN_POINT ( 'NONE',  ( 2.250000000000000000, 2.755455298081544285E-16, 803.0000000000000000 ) ) ;
#82 = CIRCLE ( 'NONE', #260, 2.250000000000000000 ) ;
#83 = SECURITY_CLASSIFICATION_LEVEL ( 'unclassified' ) ;
#84 = CARTESIAN_POINT ( 'NONE',  ( -4.000000000000000000, 0.000000000000000000, 3.000000000000000000 ) ) ;
#85 = PERSON_AND_ORGANIZATION ( #267, #44 ) ;
#86 = CALENDAR_DATE ( 2022, 20, 6 ) ;
#87 = CARTESIAN_POINT ( 'NONE',  ( -2.449999999999999734, 3.000384657911015370E-16, 2.999999999999990674 ) ) ;
#88 = COORDINATED_UNIVERSAL_TIME_OFFSET ( 1, 0, .AHEAD. ) ;
#89 = DIRECTION ( 'NONE',  ( 1.000000000000000000, 0.000000000000000000, 0.000000000000000000 ) ) ;
#90 = CALENDAR_DATE ( 2022, 20, 6 ) ;
#91 = TOROIDAL_SURFACE ( 'NONE', #111, 2.449999999999999734, 0.2000000000000000111 ) ;
#92 = DATE_AND_TIME ( #86, #236 ) ;
#93 = CARTESIAN_POINT ( 'NONE',  ( -2.449999999999999734, 3.000384657911015370E-16, 3.199999999999980638 ) ) ;
#94 = EDGE_CURVE ( 'NONE', #3, #40, #272, .T. ) ;
#95 = ORIENTED_EDGE ( 'NONE', *, *, #279, .F. ) ;
#96 = CIRCLE ( 'NONE', #216, 2.449999999999999734 ) ;
#97 = VERTEX_POINT ( 'NONE', #87 ) ;
#98 = VERTEX_POINT ( 'NONE', #84 ) ;
#99 = VERTEX_POINT ( 'NONE', #250 ) ;
#100 = ORIENTED_EDGE ( 'NONE', *, *, #132, .T. ) ;
#101 = PRODUCT_DEFINITION ( 'NEZNÁMÝ', '', #5, #46 ) ;
#102 = DIRECTION ( 'NONE',  ( 0.000000000000000000, 0.000000000000000000, 1.000000000000000000 ) ) ;
#103 = DIRECTION ( 'NONE',  ( 1.000000000000000000, 0.000000000000000000, 0.000000000000000000 ) ) ;
#104 = CARTESIAN_POINT ( 'NONE',  ( 0.000000000000000000, 0.000000000000000000, 3.000000000000000000 ) ) ;
#105 = DIRECTION ( 'NONE',  ( 1.000000000000000000, 0.000000000000000000, 0.000000000000000000 ) ) ;
#106 = AXIS2_PLACEMENT_3D ( 'NONE', #56, #239, #34 ) ;
#107 = CARTESIAN_POINT ( 'NONE',  ( 0.000000000000000000, 0.000000000000000000, 0.000000000000000000 ) ) ;
#108 = PERSON_AND_ORGANIZATION_ROLE ( 'design_owner' ) ;
#109 = DIRECTION ( 'NONE',  ( 0.000000000000000000, 0.000000000000000000, -1.000000000000000000 ) ) ;
#110 = CARTESIAN_POINT ( 'NONE',  ( 0.000000000000000000, 0.000000000000000000, 803.0000000000000000 ) ) ;
#111 = AXIS2_PLACEMENT_3D ( 'NONE', #181, #223, #177 ) ;
#112 = DIRECTION ( 'NONE',  ( 0.000000000000000000, 0.000000000000000000, 1.000000000000000000 ) ) ;
#113 = ORIENTED_EDGE ( 'NONE', *, *, #184, .T. ) ;
#114 = EDGE_LOOP ( 'NONE', ( #143, #173 ) ) ;
#115 = AXIS2_PLACEMENT_3D ( 'NONE', #304, #256, #159 ) ;
#116 = SECURITY_CLASSIFICATION ( '', '', #83 ) ;
#117 = VERTEX_POINT ( 'NONE', #59 ) ;
#118 = CC_DESIGN_PERSON_AND_ORGANIZATION_ASSIGNMENT ( #207, #249, ( #116 ) ) ;
#119 = VERTEX_POINT ( 'NONE', #224 ) ;
#120 = DIRECTION ( 'NONE',  ( -0.000000000000000000, -0.000000000000000000, -1.000000000000000000 ) ) ;
#121 = AXIS2_PLACEMENT_3D ( 'NONE', #110, #274, #230 ) ;
#122 = FACE_OUTER_BOUND ( 'NONE', #114, .T. ) ;
#123 = LOCAL_TIME ( 12, 4, 41.00000000000000000, #291 ) ;
#124 = DATE_TIME_ROLE ( 'classification_date' ) ;
#125 = PLANE ( 'NONE',  #152 ) ;
#126 = DIRECTION ( 'NONE',  ( 1.000000000000000000, 0.000000000000000000, 0.000000000000000000 ) ) ;
#127 = DATE_TIME_ROLE ( 'creation_date' ) ;
#128 = DIRECTION ( 'NONE',  ( 1.000000000000000000, 0.000000000000000000, -0.000000000000000000 ) ) ;
#129 = CIRCLE ( 'NONE', #106, 4.000000000000000000 ) ;
#130 = CC_DESIGN_PERSON_AND_ORGANIZATION_ASSIGNMENT ( #12, #294, ( #101 ) ) ;
#131 =( NAMED_UNIT ( * ) SI_UNIT ( $, .STERADIAN. ) SOLID_ANGLE_UNIT ( ) );
#132 = EDGE_CURVE ( 'NONE', #138, #51, #63, .T. ) ;
#133 = FACE_OUTER_BOUND ( 'NONE', #74, .T. ) ;
#134 = DATE_AND_TIME ( #64, #191 ) ;
#135 = FACE_OUTER_BOUND ( 'NONE', #217, .T. ) ;
#136 = CC_DESIGN_DATE_AND_TIME_ASSIGNMENT ( #199, #124, ( #116 ) ) ;
#137 = CYLINDRICAL_SURFACE ( 'NONE', #47, 4.000000000000000000 ) ;
#138 = VERTEX_POINT ( 'NONE', #157 ) ;
#139 = EDGE_CURVE ( 'NONE', #99, #138, #82, .T. ) ;
#140 = CIRCLE ( 'NONE', #187, 2.250000000000000000 ) ;
#141 = EDGE_CURVE ( 'NONE', #51, #117, #164, .T. ) ;
#142 = CC_DESIGN_PERSON_AND_ORGANIZATION_ASSIGNMENT ( #17, #156, ( #5 ) ) ;
#143 = ORIENTED_EDGE ( 'NONE', *, *, #245, .F. ) ;
#144 = ORIENTED_EDGE ( 'NONE', *, *, #279, .T. ) ;
#145 = ORIENTED_EDGE ( 'NONE', *, *, #189, .T. ) ;
#146 = APPROVAL_PERSON_ORGANIZATION ( #225, #52, #246 ) ;
#147 = FACE_OUTER_BOUND ( 'NONE', #218, .T. ) ;
#148 = VERTEX_POINT ( 'NONE', #197 ) ;
#149 = EDGE_LOOP ( 'NONE', ( #73, #1 ) ) ;
#150 = CARTESIAN_POINT ( 'NONE',  ( 0.000000000000000000, 0.000000000000000000, 3.000000000000000000 ) ) ;
#151 = PERSON_AND_ORGANIZATION ( #267, #44 ) ;
#152 = AXIS2_PLACEMENT_3D ( 'NONE', #24, #112, #212 ) ;
#153 = DIRECTION ( 'NONE',  ( 0.000000000000000000, 0.000000000000000000, 1.000000000000000000 ) ) ;
#154 = CALENDAR_DATE ( 2022, 20, 6 ) ;
#155 = LINE ( 'NONE', #248, #53 ) ;
#156 = PERSON_AND_ORGANIZATION_ROLE ( 'design_supplier' ) ;
#157 = CARTESIAN_POINT ( 'NONE',  ( 2.250000000000000000, 2.755455298081544285E-16, 803.0000000000000000 ) ) ;
#158 = CALENDAR_DATE ( 2022, 20, 6 ) ;
#159 = DIRECTION ( 'NONE',  ( 1.000000000000000000, 0.000000000000000000, 0.000000000000000000 ) ) ;
#160 = CC_DESIGN_APPROVAL ( #45, ( #5 ) ) ;
#161 = DIRECTION ( 'NONE',  ( -0.000000000000000000, -0.000000000000000000, -1.000000000000000000 ) ) ;
#162 = SHAPE_DEFINITION_REPRESENTATION ( #285, #303 ) ;
#163 = CARTESIAN_POINT ( 'NONE',  ( 0.000000000000000000, 0.000000000000000000, 0.000000000000000000 ) ) ;
#164 = CIRCLE ( 'NONE', #258, 2.250000000000000000 ) ;
#165 = EDGE_CURVE ( 'NONE', #98, #40, #155, .T. ) ;
#166 = ORIENTED_EDGE ( 'NONE', *, *, #208, .T. ) ;
#167 = PRODUCT ( '3d72', '3d72', '', ( #297 ) ) ;
#168 = ADVANCED_FACE ( 'NONE', ( #35, #227 ), #10, .T. ) ;
#169 = ORIENTED_EDGE ( 'NONE', *, *, #189, .F. ) ;
#170 = ORIENTED_EDGE ( 'NONE', *, *, #94, .T. ) ;
#171 = AXIS2_PLACEMENT_3D ( 'NONE', #265, #241, #179 ) ;
#172 = DIRECTION ( 'NONE',  ( -0.000000000000000000, -0.000000000000000000, -1.000000000000000000 ) ) ;
#173 = ORIENTED_EDGE ( 'NONE', *, *, #94, .F. ) ;
#174 = DIRECTION ( 'NONE',  ( 0.000000000000000000, 0.000000000000000000, 1.000000000000000000 ) ) ;
#175 = COORDINATED_UNIVERSAL_TIME_OFFSET ( 1, 0, .AHEAD. ) ;
#176 = AXIS2_PLACEMENT_3D ( 'NONE', #163, #231, #209 ) ;
#177 = DIRECTION ( 'NONE',  ( 1.000000000000000000, 0.000000000000000000, 0.000000000000000000 ) ) ;
#178 = APPROVAL_DATE_TIME ( #134, #52 ) ;
#179 = DIRECTION ( 'NONE',  ( 1.000000000000000000, 0.000000000000000000, -0.000000000000000000 ) ) ;
#180 = APPROVAL_STATUS ( 'not_yet_approved' ) ;
#181 = CARTESIAN_POINT ( 'NONE',  ( 0.000000000000000000, 0.000000000000000000, 3.199999999999980638 ) ) ;
#182 = PERSON_AND_ORGANIZATION_ROLE ( 'creator' ) ;
#183 = DIRECTION ( 'NONE',  ( -1.000000000000000000, 0.000000000000000000, 0.000000000000000000 ) ) ;
#184 = EDGE_CURVE ( 'NONE', #98, #148, #4, .T. ) ;
#185 = COORDINATED_UNIVERSAL_TIME_OFFSET ( 1, 0, .AHEAD. ) ;
#186 = DIRECTION ( 'NONE',  ( 0.000000000000000000, 0.000000000000000000, 1.000000000000000000 ) ) ;
#187 = AXIS2_PLACEMENT_3D ( 'NONE', #30, #296, #105 ) ;
#188 = APPROVAL_PERSON_ORGANIZATION ( #85, #45, #80 ) ;
#189 = EDGE_CURVE ( 'NONE', #148, #3, #204, .T. ) ;
#190 = ORIENTED_EDGE ( 'NONE', *, *, #257, .F. ) ;
#191 = LOCAL_TIME ( 12, 4, 41.00000000000000000, #88 ) ;
#192 = ORIENTED_EDGE ( 'NONE', *, *, #245, .T. ) ;
#193 = ORIENTED_EDGE ( 'NONE', *, *, #139, .F. ) ;
#194 = ORIENTED_EDGE ( 'NONE', *, *, #283, .T. ) ;
#195 = ORIENTED_EDGE ( 'NONE', *, *, #28, .T. ) ;
#196 = CIRCLE ( 'NONE', #226, 0.2000000000000000944 ) ;
#197 = CARTESIAN_POINT ( 'NONE',  ( 4.000000000000000000, 4.898587196589412829E-16, 3.000000000000000000 ) ) ;
#198 = CARTESIAN_POINT ( 'NONE',  ( 2.250000000000000000, 2.755455298081544285E-16, 3.199999999999980638 ) ) ;
#199 = DATE_AND_TIME ( #154, #123 ) ;
#200 = DIRECTION ( 'NONE',  ( -0.000000000000000000, -0.000000000000000000, -1.000000000000000000 ) ) ;
#201 = DATE_AND_TIME ( #90, #38 ) ;
#202 = CIRCLE ( 'NONE', #70, 0.2000000000000000944 ) ;
#203 = CC_DESIGN_APPROVAL ( #52, ( #101 ) ) ;
#204 = LINE ( 'NONE', #65, #252 ) ;
#205 = DIRECTION ( 'NONE',  ( 0.000000000000000000, 0.000000000000000000, 1.000000000000000000 ) ) ;
#206 = DIRECTION ( 'NONE',  ( 1.000000000000000000, 0.000000000000000000, 0.000000000000000000 ) ) ;
#207 = PERSON_AND_ORGANIZATION ( #267, #44 ) ;
#208 = EDGE_CURVE ( 'NONE', #138, #99, #140, .T. ) ;
#209 = DIRECTION ( 'NONE',  ( 1.000000000000000000, 0.000000000000000000, 0.000000000000000000 ) ) ;
#210 =( NAMED_UNIT ( * ) PLANE_ANGLE_UNIT ( ) SI_UNIT ( $, .RADIAN. ) );
#211 = CARTESIAN_POINT ( 'NONE',  ( 0.000000000000000000, 0.000000000000000000, 803.0000000000000000 ) ) ;
#212 = DIRECTION ( 'NONE',  ( 1.000000000000000000, 0.000000000000000000, -0.000000000000000000 ) ) ;
#213 = AXIS2_PLACEMENT_3D ( 'NONE', #150, #120, #290 ) ;
#214 = EDGE_LOOP ( 'NONE', ( #240, #166 ) ) ;
#215 = ORIENTED_EDGE ( 'NONE', *, *, #283, .F. ) ;
#216 = AXIS2_PLACEMENT_3D ( 'NONE', #104, #200, #58 ) ;
#217 = EDGE_LOOP ( 'NONE', ( #48, #193, #261, #6 ) ) ;
#218 = EDGE_LOOP ( 'NONE', ( #282, #194, #286, #95 ) ) ;
#219 = FACE_OUTER_BOUND ( 'NONE', #55, .T. ) ;
#220 = DIRECTION ( 'NONE',  ( 0.000000000000000000, 0.000000000000000000, 1.000000000000000000 ) ) ;
#221 = APPROVAL_ROLE ( '' ) ;
#222 = MANIFOLD_SOLID_BREP ( 'Zaoblit1', #23 ) ;
#223 = DIRECTION ( 'NONE',  ( 0.000000000000000000, 0.000000000000000000, 1.000000000000000000 ) ) ;
#224 = CARTESIAN_POINT ( 'NONE',  ( 2.449999999999999734, 0.000000000000000000, 2.999999999999990674 ) ) ;
#225 = PERSON_AND_ORGANIZATION ( #267, #44 ) ;
#226 = AXIS2_PLACEMENT_3D ( 'NONE', #229, #302, #109 ) ;
#227 = FACE_OUTER_BOUND ( 'NONE', #77, .T. ) ;
#228 =( LENGTH_UNIT ( ) NAMED_UNIT ( * ) SI_UNIT ( .MILLI., .METRE. ) );
#229 = CARTESIAN_POINT ( 'NONE',  ( 2.449999999999999734, 0.000000000000000000, 3.199999999999980638 ) ) ;
#230 = DIRECTION ( 'NONE',  ( -1.000000000000000000, 0.000000000000000000, 0.000000000000000000 ) ) ;
#231 = DIRECTION ( 'NONE',  ( 0.000000000000000000, 0.000000000000000000, 1.000000000000000000 ) ) ;
#232 = DIRECTION ( 'NONE',  ( 1.224646799147353207E-16, 1.000000000000000000, -0.000000000000000000 ) ) ;
#233 = ADVANCED_FACE ( 'NONE', ( #219 ), #60, .F. ) ;
#234 = ORIENTED_EDGE ( 'NONE', *, *, #141, .F. ) ;
#235 = AXIS2_PLACEMENT_3D ( 'NONE', #33, #300, #126 ) ;
#236 = LOCAL_TIME ( 12, 4, 41.00000000000000000, #175 ) ;
#237 = CC_DESIGN_PERSON_AND_ORGANIZATION_ASSIGNMENT ( #36, #182, ( #5 ) ) ;
#238 = ADVANCED_FACE ( 'NONE', ( #122 ), #125, .F. ) ;
#239 = DIRECTION ( 'NONE',  ( 0.000000000000000000, 0.000000000000000000, 1.000000000000000000 ) ) ;
#240 = ORIENTED_EDGE ( 'NONE', *, *, #139, .T. ) ;
#241 = DIRECTION ( 'NONE',  ( 0.000000000000000000, 0.000000000000000000, 1.000000000000000000 ) ) ;
#242 = APPROVAL_STATUS ( 'not_yet_approved' ) ;
#243 = LOCAL_TIME ( 12, 4, 41.00000000000000000, #185 ) ;
#244 = FACE_OUTER_BOUND ( 'NONE', #214, .T. ) ;
#245 = EDGE_CURVE ( 'NONE', #40, #3, #287, .T. ) ;
#246 = APPROVAL_ROLE ( '' ) ;
#247 = ADVANCED_FACE ( 'NONE', ( #133 ), #69, .T. ) ;
#248 = CARTESIAN_POINT ( 'NONE',  ( -4.000000000000000000, 0.000000000000000000, 3.000000000000000000 ) ) ;
#249 = PERSON_AND_ORGANIZATION_ROLE ( 'classification_officer' ) ;
#250 = CARTESIAN_POINT ( 'NONE',  ( -2.250000000000000000, 0.000000000000000000, 803.0000000000000000 ) ) ;
#251 = PERSON_AND_ORGANIZATION ( #267, #44 ) ;
#252 = VECTOR ( 'NONE', #13, 1000.000000000000000 ) ;
#253 = APPROVAL_PERSON_ORGANIZATION ( #151, #288, #221 ) ;
#254 = CARTESIAN_POINT ( 'NONE',  ( 0.000000000000000000, 0.000000000000000000, 3.199999999999980638 ) ) ;
#255 = DIRECTION ( 'NONE',  ( -1.000000000000000000, 1.224646799147353207E-16, 0.000000000000000000 ) ) ;
#256 = DIRECTION ( 'NONE',  ( -0.000000000000000000, -0.000000000000000000, -1.000000000000000000 ) ) ;
#257 = EDGE_CURVE ( 'NONE', #97, #119, #43, .T. ) ;
#258 = AXIS2_PLACEMENT_3D ( 'NONE', #62, #174, #79 ) ;
#259 = AXIS2_PLACEMENT_3D ( 'NONE', #14, #205, #61 ) ;
#260 = AXIS2_PLACEMENT_3D ( 'NONE', #264, #153, #206 ) ;
#261 = ORIENTED_EDGE ( 'NONE', *, *, #295, .T. ) ;
#262 = CC_DESIGN_PERSON_AND_ORGANIZATION_ASSIGNMENT ( #251, #108, ( #167 ) ) ;
#263 = CIRCLE ( 'NONE', #37, 2.250000000000000000 ) ;
#264 = CARTESIAN_POINT ( 'NONE',  ( 0.000000000000000000, 0.000000000000000000, 803.0000000000000000 ) ) ;
#265 = CARTESIAN_POINT ( 'NONE',  ( 0.000000000000000000, 0.000000000000000000, 3.000000000000000000 ) ) ;
#266 = AXIS2_PLACEMENT_3D ( 'NONE', #211, #68, #183 ) ;
#267 = PERSON ( 'NEURÈENÝ', 'NEURÈENÝ', 'NEURÈENÝ', ('NEURÈENÝ'), ('NEURÈENÝ'), ('NEURÈENÝ') ) ;
#268 = DIRECTION ( 'NONE',  ( -0.000000000000000000, -0.000000000000000000, -1.000000000000000000 ) ) ;
#269 = COORDINATED_UNIVERSAL_TIME_OFFSET ( 1, 0, .AHEAD. ) ;
#270 = DATE_AND_TIME ( #158, #243 ) ;
#271 = DIRECTION ( 'NONE',  ( 0.000000000000000000, 0.000000000000000000, 1.000000000000000000 ) ) ;
#272 = CIRCLE ( 'NONE', #278, 4.000000000000000000 ) ;
#273 = DIRECTION ( 'NONE',  ( -1.000000000000000000, 0.000000000000000000, 0.000000000000000000 ) ) ;
#274 = DIRECTION ( 'NONE',  ( -0.000000000000000000, -0.000000000000000000, -1.000000000000000000 ) ) ;
#275 = APPROVAL_DATE_TIME ( #92, #288 ) ;
#276 = CARTESIAN_POINT ( 'NONE',  ( -2.250000000000000000, 0.000000000000000000, 803.0000000000000000 ) ) ;
#277 = UNCERTAINTY_MEASURE_WITH_UNIT (LENGTH_MEASURE( 1.000000000000000082E-05 ), #228, 'distance_accuracy_value', 'NONE');
#278 = AXIS2_PLACEMENT_3D ( 'NONE', #107, #271, #29 ) ;
#279 = EDGE_CURVE ( 'NONE', #51, #119, #196, .T. ) ;
#280 = AXIS2_PLACEMENT_3D ( 'NONE', #9, #220, #103 ) ;
#281 = ORIENTED_EDGE ( 'NONE', *, *, #184, .F. ) ;
#282 = ORIENTED_EDGE ( 'NONE', *, *, #293, .F. ) ;
#283 = EDGE_CURVE ( 'NONE', #117, #97, #202, .T. ) ;
#284 = EDGE_LOOP ( 'NONE', ( #169, #281, #76, #192 ) ) ;
#285 = PRODUCT_DEFINITION_SHAPE ( 'NONE', 'NONE',  #101 ) ;
#286 = ORIENTED_EDGE ( 'NONE', *, *, #49, .F. ) ;
#287 = CIRCLE ( 'NONE', #176, 4.000000000000000000 ) ;
#288 = APPROVAL ( #242, 'NEURÈENÝ' ) ;
#289 = FACE_OUTER_BOUND ( 'NONE', #284, .T. ) ;
#290 = DIRECTION ( 'NONE',  ( -1.000000000000000000, 0.000000000000000000, 0.000000000000000000 ) ) ;
#291 = COORDINATED_UNIVERSAL_TIME_OFFSET ( 1, 0, .AHEAD. ) ;
#292 = PLANE ( 'NONE',  #25 ) ;
#293 = EDGE_CURVE ( 'NONE', #117, #51, #263, .T. ) ;
#294 = PERSON_AND_ORGANIZATION_ROLE ( 'creator' ) ;
#295 = EDGE_CURVE ( 'NONE', #99, #117, #18, .T. ) ;
#296 = DIRECTION ( 'NONE',  ( 0.000000000000000000, 0.000000000000000000, 1.000000000000000000 ) ) ;
#297 = MECHANICAL_CONTEXT ( 'NONE', #19, 'mechanical' ) ;
#298 = APPLICATION_CONTEXT ( 'configuration controlled 3d designs of mechanical parts and assemblies' ) ;
#299 = ADVANCED_FACE ( 'NONE', ( #39 ), #137, .T. ) ;
#300 = DIRECTION ( 'NONE',  ( 0.000000000000000000, 0.000000000000000000, 1.000000000000000000 ) ) ;
#301 = APPROVAL_DATE_TIME ( #270, #45 ) ;
#302 = DIRECTION ( 'NONE',  ( 0.000000000000000000, -1.000000000000000000, 0.000000000000000000 ) ) ;
#303 = ADVANCED_BREP_SHAPE_REPRESENTATION ( '3d72', ( #222, #259 ), #31 ) ;
#304 = CARTESIAN_POINT ( 'NONE',  ( 0.000000000000000000, 0.000000000000000000, 3.000000000000000000 ) ) ;
#305 = PRODUCT_RELATED_PRODUCT_CATEGORY ( 'detail', '', ( #167 ) ) ;
#306 = ADVANCED_FACE ( 'NONE', ( #135 ), #22, .T. ) ;
#307 = VECTOR ( 'NONE', #268, 1000.000000000000000 ) ;
ENDSEC;
END-ISO-10303-21;
