ISO-10303-21;
HEADER;
FILE_DESCRIPTION (( 'STEP AP203' ),
    '1' );
FILE_NAME ('9cfd.STEP',
    '2022-06-20T09:50:41',
    ( '' ),
    ( '' ),
    'SwSTEP 2.0',
    'SolidWorks 2019',
    '' );
FILE_SCHEMA (( 'CONFIG_CONTROL_DESIGN' ));
ENDSEC;

DATA;
#1 = PLANE ( 'NONE',  #47 ) ;
#2 = CYLINDRICAL_SURFACE ( 'NONE', #115, 3.750000000000000000 ) ;
#3 = FACE_OUTER_BOUND ( 'NONE', #167, .T. ) ;
#4 = VECTOR ( 'NONE', #113, 1000.000000000000000 ) ;
#5 = PRODUCT_DEFINITION ( 'NEZNÁMÝ', '', #266, #297 ) ;
#6 = ORIENTED_EDGE ( 'NONE', *, *, #166, .F. ) ;
#7 = ORIENTED_EDGE ( 'NONE', *, *, #227, .F. ) ;
#8 = AXIS2_PLACEMENT_3D ( 'NONE', #250, #306, #129 ) ;
#9 = VECTOR ( 'NONE', #177, 1000.000000000000000 ) ;
#10 = ORIENTED_EDGE ( 'NONE', *, *, #279, .T. ) ;
#11 = ORIENTED_EDGE ( 'NONE', *, *, #94, .T. ) ;
#12 = CC_DESIGN_SECURITY_CLASSIFICATION ( #171, ( #266 ) ) ;
#13 = ORIENTED_EDGE ( 'NONE', *, *, #23, .T. ) ;
#14 = APPROVAL_STATUS ( 'not_yet_approved' ) ;
#15 = CYLINDRICAL_SURFACE ( 'NONE', #196, 3.750000000000000000 ) ;
#16 = CARTESIAN_POINT ( 'NONE',  ( 0.000000000000000000, 0.000000000000000000, 5.199999999999982414 ) ) ;
#17 = PERSON_AND_ORGANIZATION ( #137, #96 ) ;
#18 = CARTESIAN_POINT ( 'NONE',  ( -6.000000000000000888, 0.000000000000000000, 0.000000000000000000 ) ) ;
#19 = PERSON_AND_ORGANIZATION ( #137, #96 ) ;
#20 = DIRECTION ( 'NONE',  ( 0.000000000000000000, 0.000000000000000000, 1.000000000000000000 ) ) ;
#21 = APPROVAL_DATE_TIME ( #228, #97 ) ;
#22 = FACE_OUTER_BOUND ( 'NONE', #267, .T. ) ;
#23 = EDGE_CURVE ( 'NONE', #194, #78, #217, .T. ) ;
#24 = FACE_OUTER_BOUND ( 'NONE', #214, .T. ) ;
#25 =( LENGTH_UNIT ( ) NAMED_UNIT ( * ) SI_UNIT ( .MILLI., .METRE. ) );
#26 = CIRCLE ( 'NONE', #67, 3.750000000000000000 ) ;
#27 = TOROIDAL_SURFACE ( 'NONE', #234, 3.949999999999999734, 0.2000000000000000111 ) ;
#28 = ORIENTED_EDGE ( 'NONE', *, *, #101, .F. ) ;
#29 = ORIENTED_EDGE ( 'NONE', *, *, #162, .T. ) ;
#30 = CIRCLE ( 'NONE', #52, 3.750000000000000000 ) ;
#31 = CARTESIAN_POINT ( 'NONE',  ( 3.750000000000000000, 4.592425496802573972E-16, 5.199999999999982414 ) ) ;
#32 = APPROVAL_PERSON_ORGANIZATION ( #282, #97, #253 ) ;
#33 = PERSON_AND_ORGANIZATION_ROLE ( 'creator' ) ;
#34 = DIRECTION ( 'NONE',  ( -0.000000000000000000, -0.000000000000000000, -1.000000000000000000 ) ) ;
#35 = CIRCLE ( 'NONE', #284, 3.949999999999999734 ) ;
#36 = EDGE_CURVE ( 'NONE', #216, #190, #35, .T. ) ;
#37 = COORDINATED_UNIVERSAL_TIME_OFFSET ( 1, 0, .AHEAD. ) ;
#38 = CARTESIAN_POINT ( 'NONE',  ( 6.000000000000000888, 7.347880794884120722E-16, 0.000000000000000000 ) ) ;
#39 = CARTESIAN_POINT ( 'NONE',  ( 3.750000000000000000, 4.592425496802573972E-16, 320.0000000000000000 ) ) ;
#40 = AXIS2_PLACEMENT_3D ( 'NONE', #65, #154, #251 ) ;
#41 = LOCAL_TIME ( 11, 50, 41.00000000000000000, #37 ) ;
#42 = DATE_AND_TIME ( #276, #148 ) ;
#43 = DIRECTION ( 'NONE',  ( 0.000000000000000000, 0.000000000000000000, 1.000000000000000000 ) ) ;
#44 = APPROVAL_ROLE ( '' ) ;
#45 = DIRECTION ( 'NONE',  ( -1.000000000000000000, 0.000000000000000000, 0.000000000000000000 ) ) ;
#46 = DIRECTION ( 'NONE',  ( 1.000000000000000000, 0.000000000000000000, 0.000000000000000000 ) ) ;
#47 = AXIS2_PLACEMENT_3D ( 'NONE', #161, #69, #92 ) ;
#48 = LOCAL_TIME ( 11, 50, 41.00000000000000000, #158 ) ;
#49 = DIRECTION ( 'NONE',  ( 1.000000000000000000, 0.000000000000000000, 0.000000000000000000 ) ) ;
#50 = ADVANCED_FACE ( 'NONE', ( #219 ), #15, .T. ) ;
#51 = TOROIDAL_SURFACE ( 'NONE', #165, 3.949999999999999734, 0.2000000000000000111 ) ;
#52 = AXIS2_PLACEMENT_3D ( 'NONE', #16, #247, #157 ) ;
#53 = EDGE_LOOP ( 'NONE', ( #244, #76, #57, #296 ) ) ;
#54 = ORIENTED_EDGE ( 'NONE', *, *, #124, .F. ) ;
#55 = ORIENTED_EDGE ( 'NONE', *, *, #166, .T. ) ;
#56 = ADVANCED_FACE ( 'NONE', ( #307 ), #27, .F. ) ;
#57 = ORIENTED_EDGE ( 'NONE', *, *, #124, .T. ) ;
#58 = DIRECTION ( 'NONE',  ( 1.000000000000000000, 0.000000000000000000, 0.000000000000000000 ) ) ;
#59 = CARTESIAN_POINT ( 'NONE',  ( -3.750000000000000000, 0.000000000000000000, 320.0000000000000000 ) ) ;
#60 = CC_DESIGN_APPROVAL ( #83, ( #5 ) ) ;
#61 = PERSON_AND_ORGANIZATION ( #137, #96 ) ;
#62 = DIRECTION ( 'NONE',  ( 0.000000000000000000, -1.000000000000000000, 0.000000000000000000 ) ) ;
#63 = AXIS2_PLACEMENT_3D ( 'NONE', #226, #146, #249 ) ;
#64 = DATE_TIME_ROLE ( 'classification_date' ) ;
#65 = CARTESIAN_POINT ( 'NONE',  ( 0.000000000000000000, 0.000000000000000000, 320.0000000000000000 ) ) ;
#66 = CARTESIAN_POINT ( 'NONE',  ( -3.750000000000000000, 0.000000000000000000, 320.0000000000000000 ) ) ;
#67 = AXIS2_PLACEMENT_3D ( 'NONE', #164, #263, #139 ) ;
#68 = APPROVAL_STATUS ( 'not_yet_approved' ) ;
#69 = DIRECTION ( 'NONE',  ( 0.000000000000000000, 0.000000000000000000, 1.000000000000000000 ) ) ;
#70 = CIRCLE ( 'NONE', #208, 3.750000000000000000 ) ;
#71 = LINE ( 'NONE', #288, #4 ) ;
#72 = CARTESIAN_POINT ( 'NONE',  ( 0.000000000000000000, 0.000000000000000000, 320.0000000000000000 ) ) ;
#73 =( GEOMETRIC_REPRESENTATION_CONTEXT ( 3 ) GLOBAL_UNCERTAINTY_ASSIGNED_CONTEXT ( ( #79 ) ) GLOBAL_UNIT_ASSIGNED_CONTEXT ( ( #25, #111, #183 ) ) REPRESENTATION_CONTEXT ( 'NONE', 'WORKASPACE' ) );
#74 = DIRECTION ( 'NONE',  ( -0.000000000000000000, -0.000000000000000000, -1.000000000000000000 ) ) ;
#75 = EDGE_LOOP ( 'NONE', ( #28, #109, #55, #142 ) ) ;
#76 = ORIENTED_EDGE ( 'NONE', *, *, #239, .T. ) ;
#77 = CIRCLE ( 'NONE', #63, 0.1999999999999996503 ) ;
#78 = VERTEX_POINT ( 'NONE', #31 ) ;
#79 = UNCERTAINTY_MEASURE_WITH_UNIT (LENGTH_MEASURE( 1.000000000000000082E-05 ), #25, 'distance_accuracy_value', 'NONE');
#80 = CIRCLE ( 'NONE', #156, 3.750000000000000000 ) ;
#81 = DIRECTION ( 'NONE',  ( 1.000000000000000000, 0.000000000000000000, 0.000000000000000000 ) ) ;
#82 = SHAPE_DEFINITION_REPRESENTATION ( #135, #289 ) ;
#83 = APPROVAL ( #127, 'NEURÈENÝ' ) ;
#84 = PERSON_AND_ORGANIZATION_ROLE ( 'design_owner' ) ;
#85 = CARTESIAN_POINT ( 'NONE',  ( 0.000000000000000000, 0.000000000000000000, 5.000000000000000000 ) ) ;
#86 = CIRCLE ( 'NONE', #260, 6.000000000000000888 ) ;
#87 = PERSON_AND_ORGANIZATION ( #137, #96 ) ;
#88 = PLANE ( 'NONE',  #40 ) ;
#89 = PERSON_AND_ORGANIZATION ( #137, #96 ) ;
#90 = DIRECTION ( 'NONE',  ( 0.000000000000000000, 0.000000000000000000, 1.000000000000000000 ) ) ;
#91 = CALENDAR_DATE ( 2022, 20, 6 ) ;
#92 = DIRECTION ( 'NONE',  ( 1.000000000000000000, 0.000000000000000000, -0.000000000000000000 ) ) ;
#93 = CARTESIAN_POINT ( 'NONE',  ( 0.000000000000000000, 0.000000000000000000, 320.0000000000000000 ) ) ;
#94 = EDGE_CURVE ( 'NONE', #78, #118, #70, .T. ) ;
#95 = CARTESIAN_POINT ( 'NONE',  ( 0.000000000000000000, 0.000000000000000000, 5.000000000000000000 ) ) ;
#96 = ORGANIZATION ( 'NEURÈENÝ', 'NEURÈENÝ', '' ) ;
#97 = APPROVAL ( #68, 'NEURÈENÝ' ) ;
#98 = ORIENTED_EDGE ( 'NONE', *, *, #189, .T. ) ;
#99 = CIRCLE ( 'NONE', #160, 6.000000000000000888 ) ;
#100 = ORIENTED_EDGE ( 'NONE', *, *, #36, .T. ) ;
#101 = EDGE_CURVE ( 'NONE', #118, #190, #77, .T. ) ;
#102 = EDGE_LOOP ( 'NONE', ( #192, #269, #193, #6 ) ) ;
#103 = DIRECTION ( 'NONE',  ( -0.000000000000000000, -0.000000000000000000, -1.000000000000000000 ) ) ;
#104 = DIRECTION ( 'NONE',  ( 1.000000000000000000, 0.000000000000000000, 0.000000000000000000 ) ) ;
#105 = APPROVAL_DATE_TIME ( #248, #83 ) ;
#106 = AXIS2_PLACEMENT_3D ( 'NONE', #112, #20, #206 ) ;
#107 = CARTESIAN_POINT ( 'NONE',  ( -3.949999999999999734, 4.837354856632044071E-16, 4.999999999999991118 ) ) ;
#108 = CALENDAR_DATE ( 2022, 20, 6 ) ;
#109 = ORIENTED_EDGE ( 'NONE', *, *, #94, .F. ) ;
#110 = EDGE_CURVE ( 'NONE', #121, #145, #99, .T. ) ;
#111 =( NAMED_UNIT ( * ) PLANE_ANGLE_UNIT ( ) SI_UNIT ( $, .RADIAN. ) );
#112 = CARTESIAN_POINT ( 'NONE',  ( 0.000000000000000000, 0.000000000000000000, 0.000000000000000000 ) ) ;
#113 = DIRECTION ( 'NONE',  ( -0.000000000000000000, -0.000000000000000000, -1.000000000000000000 ) ) ;
#114 = DIRECTION ( 'NONE',  ( -0.000000000000000000, -0.000000000000000000, -1.000000000000000000 ) ) ;
#115 = AXIS2_PLACEMENT_3D ( 'NONE', #93, #74, #286 ) ;
#116 = APPROVAL ( #14, 'NEURÈENÝ' ) ;
#117 = VERTEX_POINT ( 'NONE', #18 ) ;
#118 = VERTEX_POINT ( 'NONE', #195 ) ;
#119 = VECTOR ( 'NONE', #233, 1000.000000000000000 ) ;
#120 = ORIENTED_EDGE ( 'NONE', *, *, #239, .F. ) ;
#121 = VERTEX_POINT ( 'NONE', #200 ) ;
#122 = VERTEX_POINT ( 'NONE', #38 ) ;
#123 = FACE_OUTER_BOUND ( 'NONE', #75, .T. ) ;
#124 = EDGE_CURVE ( 'NONE', #122, #117, #295, .T. ) ;
#125 = MANIFOLD_SOLID_BREP ( 'Zaoblit1', #270 ) ;
#126 = CARTESIAN_POINT ( 'NONE',  ( 0.000000000000000000, 0.000000000000000000, 5.000000000000000000 ) ) ;
#127 = APPROVAL_STATUS ( 'not_yet_approved' ) ;
#128 = DIRECTION ( 'NONE',  ( -0.000000000000000000, -0.000000000000000000, -1.000000000000000000 ) ) ;
#129 = DIRECTION ( 'NONE',  ( 1.000000000000000000, 0.000000000000000000, 0.000000000000000000 ) ) ;
#130 = AXIS2_PLACEMENT_3D ( 'NONE', #163, #114, #186 ) ;
#131 = CARTESIAN_POINT ( 'NONE',  ( 0.000000000000000000, 0.000000000000000000, 0.000000000000000000 ) ) ;
#132 = CALENDAR_DATE ( 2022, 20, 6 ) ;
#133 = CARTESIAN_POINT ( 'NONE',  ( 0.000000000000000000, 0.000000000000000000, 5.199999999999982414 ) ) ;
#134 = FACE_OUTER_BOUND ( 'NONE', #53, .T. ) ;
#135 = PRODUCT_DEFINITION_SHAPE ( 'NONE', 'NONE',  #5 ) ;
#136 = EDGE_CURVE ( 'NONE', #179, #118, #172, .T. ) ;
#137 = PERSON ( 'NEURÈENÝ', 'NEURÈENÝ', 'NEURÈENÝ', ('NEURÈENÝ'), ('NEURÈENÝ'), ('NEURÈENÝ') ) ;
#138 = CARTESIAN_POINT ( 'NONE',  ( 3.949999999999999734, 0.000000000000000000, 4.999999999999991118 ) ) ;
#139 = DIRECTION ( 'NONE',  ( 1.000000000000000000, 0.000000000000000000, 0.000000000000000000 ) ) ;
#140 = FACE_OUTER_BOUND ( 'NONE', #290, .T. ) ;
#141 = CIRCLE ( 'NONE', #222, 3.949999999999999734 ) ;
#142 = ORIENTED_EDGE ( 'NONE', *, *, #189, .F. ) ;
#143 = ORIENTED_EDGE ( 'NONE', *, *, #245, .F. ) ;
#144 = PRODUCT_RELATED_PRODUCT_CATEGORY ( 'detail', '', ( #184 ) ) ;
#145 = VERTEX_POINT ( 'NONE', #271 ) ;
#146 = DIRECTION ( 'NONE',  ( 1.224646799147353207E-16, 1.000000000000000000, -0.000000000000000000 ) ) ;
#147 = CC_DESIGN_PERSON_AND_ORGANIZATION_ASSIGNMENT ( #300, #280, ( #171 ) ) ;
#148 = LOCAL_TIME ( 11, 50, 41.00000000000000000, #155 ) ;
#149 = DIRECTION ( 'NONE',  ( 0.000000000000000000, 0.000000000000000000, 1.000000000000000000 ) ) ;
#150 = APPROVAL_ROLE ( '' ) ;
#151 = CARTESIAN_POINT ( 'NONE',  ( 0.000000000000000000, 0.000000000000000000, 5.199999999999982414 ) ) ;
#152 = ADVANCED_FACE ( 'NONE', ( #123 ), #51, .F. ) ;
#153 = PERSON_AND_ORGANIZATION_ROLE ( 'creator' ) ;
#154 = DIRECTION ( 'NONE',  ( 0.000000000000000000, 0.000000000000000000, 1.000000000000000000 ) ) ;
#155 = COORDINATED_UNIVERSAL_TIME_OFFSET ( 1, 0, .AHEAD. ) ;
#156 = AXIS2_PLACEMENT_3D ( 'NONE', #72, #261, #49 ) ;
#157 = DIRECTION ( 'NONE',  ( 1.000000000000000000, 0.000000000000000000, 0.000000000000000000 ) ) ;
#158 = COORDINATED_UNIVERSAL_TIME_OFFSET ( 1, 0, .AHEAD. ) ;
#159 = CARTESIAN_POINT ( 'NONE',  ( 0.000000000000000000, 0.000000000000000000, 5.000000000000000000 ) ) ;
#160 = AXIS2_PLACEMENT_3D ( 'NONE', #85, #43, #301 ) ;
#161 = CARTESIAN_POINT ( 'NONE',  ( 0.000000000000000000, 0.000000000000000000, 0.000000000000000000 ) ) ;
#162 = EDGE_CURVE ( 'NONE', #118, #78, #30, .T. ) ;
#163 = CARTESIAN_POINT ( 'NONE',  ( 0.000000000000000000, 0.000000000000000000, 5.000000000000000000 ) ) ;
#164 = CARTESIAN_POINT ( 'NONE',  ( 0.000000000000000000, 0.000000000000000000, 320.0000000000000000 ) ) ;
#165 = AXIS2_PLACEMENT_3D ( 'NONE', #277, #90, #272 ) ;
#166 = EDGE_CURVE ( 'NONE', #78, #216, #175, .T. ) ;
#167 = EDGE_LOOP ( 'NONE', ( #265, #169, #291, #29 ) ) ;
#168 = ORIENTED_EDGE ( 'NONE', *, *, #305, .F. ) ;
#169 = ORIENTED_EDGE ( 'NONE', *, *, #279, .F. ) ;
#170 = EDGE_LOOP ( 'NONE', ( #100, #98 ) ) ;
#171 = SECURITY_CLASSIFICATION ( '', '', #178 ) ;
#172 = LINE ( 'NONE', #66, #9 ) ;
#173 = CARTESIAN_POINT ( 'NONE',  ( 3.949999999999999734, 0.000000000000000000, 5.199999999999982414 ) ) ;
#174 = APPLICATION_PROTOCOL_DEFINITION ( 'international standard', 'config_control_design', 1994, #236 ) ;
#175 = CIRCLE ( 'NONE', #252, 0.1999999999999996503 ) ;
#176 = CC_DESIGN_APPROVAL ( #116, ( #266 ) ) ;
#177 = DIRECTION ( 'NONE',  ( -0.000000000000000000, -0.000000000000000000, -1.000000000000000000 ) ) ;
#178 = SECURITY_CLASSIFICATION_LEVEL ( 'unclassified' ) ;
#179 = VERTEX_POINT ( 'NONE', #59 ) ;
#180 = APPROVAL_DATE_TIME ( #202, #116 ) ;
#181 = DIRECTION ( 'NONE',  ( 0.000000000000000000, 0.000000000000000000, -1.000000000000000000 ) ) ;
#182 = PERSON_AND_ORGANIZATION_ROLE ( 'design_supplier' ) ;
#183 =( NAMED_UNIT ( * ) SI_UNIT ( $, .STERADIAN. ) SOLID_ANGLE_UNIT ( ) );
#184 = PRODUCT ( '9cfd', '9cfd', '', ( #198 ) ) ;
#185 = CARTESIAN_POINT ( 'NONE',  ( 6.000000000000000888, 7.347880794884120722E-16, 5.000000000000000000 ) ) ;
#186 = DIRECTION ( 'NONE',  ( -1.000000000000000000, 0.000000000000000000, 0.000000000000000000 ) ) ;
#187 = DIRECTION ( 'NONE',  ( -0.000000000000000000, -0.000000000000000000, -1.000000000000000000 ) ) ;
#188 = AXIS2_PLACEMENT_3D ( 'NONE', #95, #187, #45 ) ;
#189 = EDGE_CURVE ( 'NONE', #190, #216, #141, .T. ) ;
#190 = VERTEX_POINT ( 'NONE', #107 ) ;
#191 = ADVANCED_FACE ( 'NONE', ( #255 ), #88, .T. ) ;
#192 = ORIENTED_EDGE ( 'NONE', *, *, #162, .F. ) ;
#193 = ORIENTED_EDGE ( 'NONE', *, *, #36, .F. ) ;
#194 = VERTEX_POINT ( 'NONE', #39 ) ;
#195 = CARTESIAN_POINT ( 'NONE',  ( -3.750000000000000000, 0.000000000000000000, 5.199999999999982414 ) ) ;
#196 = AXIS2_PLACEMENT_3D ( 'NONE', #197, #34, #302 ) ;
#197 = CARTESIAN_POINT ( 'NONE',  ( 0.000000000000000000, 0.000000000000000000, 320.0000000000000000 ) ) ;
#198 = MECHANICAL_CONTEXT ( 'NONE', #278, 'mechanical' ) ;
#199 = CC_DESIGN_PERSON_AND_ORGANIZATION_ASSIGNMENT ( #19, #33, ( #266 ) ) ;
#200 = CARTESIAN_POINT ( 'NONE',  ( 6.000000000000000888, 7.347880794884120722E-16, 5.000000000000000000 ) ) ;
#201 = DIRECTION ( 'NONE',  ( 1.000000000000000000, 0.000000000000000000, 0.000000000000000000 ) ) ;
#202 = DATE_AND_TIME ( #91, #41 ) ;
#203 = CARTESIAN_POINT ( 'NONE',  ( 0.000000000000000000, 0.000000000000000000, 5.000000000000000000 ) ) ;
#204 = COORDINATED_UNIVERSAL_TIME_OFFSET ( 1, 0, .AHEAD. ) ;
#205 = ADVANCED_FACE ( 'NONE', ( #22 ), #1, .F. ) ;
#206 = DIRECTION ( 'NONE',  ( 1.000000000000000000, 0.000000000000000000, 0.000000000000000000 ) ) ;
#207 = FACE_BOUND ( 'NONE', #170, .T. ) ;
#208 = AXIS2_PLACEMENT_3D ( 'NONE', #133, #281, #81 ) ;
#209 = DIRECTION ( 'NONE',  ( 1.000000000000000000, 0.000000000000000000, -0.000000000000000000 ) ) ;
#210 = CC_DESIGN_DATE_AND_TIME_ASSIGNMENT ( #42, #64, ( #171 ) ) ;
#211 = EDGE_LOOP ( 'NONE', ( #10, #293 ) ) ;
#212 = ADVANCED_FACE ( 'NONE', ( #207, #140 ), #257, .T. ) ;
#213 = AXIS2_PLACEMENT_3D ( 'NONE', #159, #258, #209 ) ;
#214 = EDGE_LOOP ( 'NONE', ( #120, #7, #268, #243 ) ) ;
#215 = CC_DESIGN_PERSON_AND_ORGANIZATION_ASSIGNMENT ( #220, #182, ( #266 ) ) ;
#216 = VERTEX_POINT ( 'NONE', #138 ) ;
#217 = LINE ( 'NONE', #304, #238 ) ;
#218 = COORDINATED_UNIVERSAL_TIME_OFFSET ( 1, 0, .AHEAD. ) ;
#219 = FACE_OUTER_BOUND ( 'NONE', #240, .T. ) ;
#220 = PERSON_AND_ORGANIZATION ( #137, #96 ) ;
#221 = DIRECTION ( 'NONE',  ( 1.000000000000000000, 0.000000000000000000, 0.000000000000000000 ) ) ;
#222 = AXIS2_PLACEMENT_3D ( 'NONE', #126, #128, #221 ) ;
#223 = APPLICATION_PROTOCOL_DEFINITION ( 'international standard', 'config_control_design', 1994, #278 ) ;
#224 = ORIENTED_EDGE ( 'NONE', *, *, #136, .F. ) ;
#225 = DATE_AND_TIME ( #108, #246 ) ;
#226 = CARTESIAN_POINT ( 'NONE',  ( -3.949999999999999734, 4.837354856632044071E-16, 5.199999999999982414 ) ) ;
#227 = EDGE_CURVE ( 'NONE', #145, #121, #86, .T. ) ;
#228 = DATE_AND_TIME ( #256, #48 ) ;
#229 = CARTESIAN_POINT ( 'NONE',  ( 0.000000000000000000, 0.000000000000000000, 5.000000000000000000 ) ) ;
#230 = CYLINDRICAL_SURFACE ( 'NONE', #130, 6.000000000000000888 ) ;
#231 = CC_DESIGN_APPROVAL ( #97, ( #171 ) ) ;
#232 = CC_DESIGN_PERSON_AND_ORGANIZATION_ASSIGNMENT ( #89, #84, ( #184 ) ) ;
#233 = DIRECTION ( 'NONE',  ( -0.000000000000000000, -0.000000000000000000, -1.000000000000000000 ) ) ;
#234 = AXIS2_PLACEMENT_3D ( 'NONE', #151, #149, #201 ) ;
#235 = DIRECTION ( 'NONE',  ( 0.000000000000000000, 0.000000000000000000, 1.000000000000000000 ) ) ;
#236 = APPLICATION_CONTEXT ( 'configuration controlled 3d designs of mechanical parts and assemblies' ) ;
#237 = ORIENTED_EDGE ( 'NONE', *, *, #110, .T. ) ;
#238 = VECTOR ( 'NONE', #103, 1000.000000000000000 ) ;
#239 = EDGE_CURVE ( 'NONE', #121, #122, #283, .T. ) ;
#240 = EDGE_LOOP ( 'NONE', ( #168, #13, #11, #224 ) ) ;
#241 = CIRCLE ( 'NONE', #106, 6.000000000000000888 ) ;
#242 = ADVANCED_FACE ( 'NONE', ( #134 ), #230, .T. ) ;
#243 = ORIENTED_EDGE ( 'NONE', *, *, #245, .T. ) ;
#244 = ORIENTED_EDGE ( 'NONE', *, *, #110, .F. ) ;
#245 = EDGE_CURVE ( 'NONE', #117, #122, #241, .T. ) ;
#246 = LOCAL_TIME ( 11, 50, 41.00000000000000000, #218 ) ;
#247 = DIRECTION ( 'NONE',  ( 0.000000000000000000, 0.000000000000000000, 1.000000000000000000 ) ) ;
#248 = DATE_AND_TIME ( #132, #287 ) ;
#249 = DIRECTION ( 'NONE',  ( -1.000000000000000000, 1.224646799147353454E-16, 0.000000000000000000 ) ) ;
#250 = CARTESIAN_POINT ( 'NONE',  ( 0.000000000000000000, 0.000000000000000000, 0.000000000000000000 ) ) ;
#251 = DIRECTION ( 'NONE',  ( 1.000000000000000000, 0.000000000000000000, -0.000000000000000000 ) ) ;
#252 = AXIS2_PLACEMENT_3D ( 'NONE', #173, #62, #181 ) ;
#253 = APPROVAL_ROLE ( '' ) ;
#254 = CC_DESIGN_DATE_AND_TIME_ASSIGNMENT ( #225, #303, ( #5 ) ) ;
#255 = FACE_OUTER_BOUND ( 'NONE', #211, .T. ) ;
#256 = CALENDAR_DATE ( 2022, 20, 6 ) ;
#257 = PLANE ( 'NONE',  #213 ) ;
#258 = DIRECTION ( 'NONE',  ( 0.000000000000000000, 0.000000000000000000, 1.000000000000000000 ) ) ;
#259 = ADVANCED_FACE ( 'NONE', ( #24 ), #285, .T. ) ;
#260 = AXIS2_PLACEMENT_3D ( 'NONE', #229, #235, #46 ) ;
#261 = DIRECTION ( 'NONE',  ( 0.000000000000000000, 0.000000000000000000, 1.000000000000000000 ) ) ;
#262 = APPROVAL_PERSON_ORGANIZATION ( #61, #83, #44 ) ;
#263 = DIRECTION ( 'NONE',  ( 0.000000000000000000, 0.000000000000000000, 1.000000000000000000 ) ) ;
#264 = EDGE_CURVE ( 'NONE', #145, #117, #71, .T. ) ;
#265 = ORIENTED_EDGE ( 'NONE', *, *, #23, .F. ) ;
#266 = PRODUCT_DEFINITION_FORMATION_WITH_SPECIFIED_SOURCE ( 'LIBOVOLNÝ', '', #184, .NOT_KNOWN. ) ;
#267 = EDGE_LOOP ( 'NONE', ( #143, #54 ) ) ;
#268 = ORIENTED_EDGE ( 'NONE', *, *, #264, .T. ) ;
#269 = ORIENTED_EDGE ( 'NONE', *, *, #101, .T. ) ;
#270 = CLOSED_SHELL ( 'NONE', ( #56, #50, #242, #259, #212, #205, #273, #191, #152 ) ) ;
#271 = CARTESIAN_POINT ( 'NONE',  ( -6.000000000000000888, 0.000000000000000000, 5.000000000000000000 ) ) ;
#272 = DIRECTION ( 'NONE',  ( 1.000000000000000000, 0.000000000000000000, 0.000000000000000000 ) ) ;
#273 = ADVANCED_FACE ( 'NONE', ( #3 ), #2, .T. ) ;
#274 = DIRECTION ( 'NONE',  ( -0.000000000000000000, -0.000000000000000000, -1.000000000000000000 ) ) ;
#275 = AXIS2_PLACEMENT_3D ( 'NONE', #131, #299, #58 ) ;
#276 = CALENDAR_DATE ( 2022, 20, 6 ) ;
#277 = CARTESIAN_POINT ( 'NONE',  ( 0.000000000000000000, 0.000000000000000000, 5.199999999999982414 ) ) ;
#278 = APPLICATION_CONTEXT ( 'configuration controlled 3d designs of mechanical parts and assemblies' ) ;
#279 = EDGE_CURVE ( 'NONE', #179, #194, #80, .T. ) ;
#280 = PERSON_AND_ORGANIZATION_ROLE ( 'classification_officer' ) ;
#281 = DIRECTION ( 'NONE',  ( 0.000000000000000000, 0.000000000000000000, 1.000000000000000000 ) ) ;
#282 = PERSON_AND_ORGANIZATION ( #137, #96 ) ;
#283 = LINE ( 'NONE', #185, #119 ) ;
#284 = AXIS2_PLACEMENT_3D ( 'NONE', #203, #274, #104 ) ;
#285 = CYLINDRICAL_SURFACE ( 'NONE', #188, 6.000000000000000888 ) ;
#286 = DIRECTION ( 'NONE',  ( -1.000000000000000000, 0.000000000000000000, 0.000000000000000000 ) ) ;
#287 = LOCAL_TIME ( 11, 50, 41.00000000000000000, #204 ) ;
#288 = CARTESIAN_POINT ( 'NONE',  ( -6.000000000000000888, 0.000000000000000000, 5.000000000000000000 ) ) ;
#289 = ADVANCED_BREP_SHAPE_REPRESENTATION ( '9cfd', ( #125, #8 ), #73 ) ;
#290 = EDGE_LOOP ( 'NONE', ( #298, #237 ) ) ;
#291 = ORIENTED_EDGE ( 'NONE', *, *, #136, .T. ) ;
#292 = APPROVAL_PERSON_ORGANIZATION ( #87, #116, #150 ) ;
#293 = ORIENTED_EDGE ( 'NONE', *, *, #305, .T. ) ;
#294 = CC_DESIGN_PERSON_AND_ORGANIZATION_ASSIGNMENT ( #17, #153, ( #5 ) ) ;
#295 = CIRCLE ( 'NONE', #275, 6.000000000000000888 ) ;
#296 = ORIENTED_EDGE ( 'NONE', *, *, #264, .F. ) ;
#297 = DESIGN_CONTEXT ( 'detailed design', #236, 'design' ) ;
#298 = ORIENTED_EDGE ( 'NONE', *, *, #227, .T. ) ;
#299 = DIRECTION ( 'NONE',  ( 0.000000000000000000, 0.000000000000000000, 1.000000000000000000 ) ) ;
#300 = PERSON_AND_ORGANIZATION ( #137, #96 ) ;
#301 = DIRECTION ( 'NONE',  ( 1.000000000000000000, 0.000000000000000000, 0.000000000000000000 ) ) ;
#302 = DIRECTION ( 'NONE',  ( -1.000000000000000000, 0.000000000000000000, 0.000000000000000000 ) ) ;
#303 = DATE_TIME_ROLE ( 'creation_date' ) ;
#304 = CARTESIAN_POINT ( 'NONE',  ( 3.750000000000000000, 4.592425496802573972E-16, 320.0000000000000000 ) ) ;
#305 = EDGE_CURVE ( 'NONE', #194, #179, #26, .T. ) ;
#306 = DIRECTION ( 'NONE',  ( 0.000000000000000000, 0.000000000000000000, 1.000000000000000000 ) ) ;
#307 = FACE_OUTER_BOUND ( 'NONE', #102, .T. ) ;
ENDSEC;
END-ISO-10303-21;
