ISO-10303-21;
HEADER;
FILE_DESCRIPTION (( 'STEP AP203' ),
    '1' );
FILE_NAME ('b106.STEP',
    '2022-06-20T10:01:48',
    ( '' ),
    ( '' ),
    'SwSTEP 2.0',
    'SolidWorks 2019',
    '' );
FILE_SCHEMA (( 'CONFIG_CONTROL_DESIGN' ));
ENDSEC;

DATA;
#1 = CARTESIAN_POINT ( 'NONE',  ( 0.000000000000000000, 0.000000000000000000, 3.199999999999980638 ) ) ;
#2 = DIRECTION ( 'NONE',  ( 1.000000000000000000, 0.000000000000000000, 0.000000000000000000 ) ) ;
#3 = ADVANCED_FACE ( 'NONE', ( #224 ), #103, .F. ) ;
#4 = CARTESIAN_POINT ( 'NONE',  ( -2.799999999999999822, 3.429011037612588783E-16, 3.199999999999980638 ) ) ;
#5 = DIRECTION ( 'NONE',  ( 1.224646799147353207E-16, 1.000000000000000000, -0.000000000000000000 ) ) ;
#6 = VERTEX_POINT ( 'NONE', #24 ) ;
#7 = FACE_OUTER_BOUND ( 'NONE', #287, .T. ) ;
#8 = CIRCLE ( 'NONE', #181, 5.000000000000000000 ) ;
#9 = PERSON_AND_ORGANIZATION_ROLE ( 'creator' ) ;
#10 =( NAMED_UNIT ( * ) SI_UNIT ( $, .STERADIAN. ) SOLID_ANGLE_UNIT ( ) );
#11 = PERSON_AND_ORGANIZATION ( #281, #95 ) ;
#12 = DIRECTION ( 'NONE',  ( 1.000000000000000000, 0.000000000000000000, -0.000000000000000000 ) ) ;
#13 = APPROVAL_ROLE ( '' ) ;
#14 = EDGE_CURVE ( 'NONE', #74, #63, #176, .T. ) ;
#15 = DIRECTION ( 'NONE',  ( -0.000000000000000000, -0.000000000000000000, -1.000000000000000000 ) ) ;
#16 = ORIENTED_EDGE ( 'NONE', *, *, #273, .F. ) ;
#17 = DIRECTION ( 'NONE',  ( 1.000000000000000000, 0.000000000000000000, 0.000000000000000000 ) ) ;
#18 = COORDINATED_UNIVERSAL_TIME_OFFSET ( 1, 0, .AHEAD. ) ;
#19 = CARTESIAN_POINT ( 'NONE',  ( 0.000000000000000000, 0.000000000000000000, 0.000000000000000000 ) ) ;
#20 = LOCAL_TIME ( 12, 1, 48.00000000000000000, #283 ) ;
#21 = ORIENTED_EDGE ( 'NONE', *, *, #195, .F. ) ;
#22 = CARTESIAN_POINT ( 'NONE',  ( 5.000000000000000000, 6.123233995736766282E-16, 3.000000000000000000 ) ) ;
#23 = APPROVAL ( #255, 'NEURÈENÝ' ) ;
#24 = CARTESIAN_POINT ( 'NONE',  ( -2.799999999999999822, 3.429011037612589276E-16, 2.999999999999990674 ) ) ;
#25 = CARTESIAN_POINT ( 'NONE',  ( 5.000000000000000000, 6.123233995736766282E-16, 3.000000000000000000 ) ) ;
#26 = CIRCLE ( 'NONE', #55, 2.799999999999999822 ) ;
#27 = EDGE_CURVE ( 'NONE', #237, #200, #50, .T. ) ;
#28 = ORIENTED_EDGE ( 'NONE', *, *, #273, .T. ) ;
#29 = CARTESIAN_POINT ( 'NONE',  ( 0.000000000000000000, 0.000000000000000000, 3.000000000000000000 ) ) ;
#30 = DATE_AND_TIME ( #299, #206 ) ;
#31 = CC_DESIGN_DATE_AND_TIME_ASSIGNMENT ( #30, #83, ( #269 ) ) ;
#32 = DIRECTION ( 'NONE',  ( 1.000000000000000000, 0.000000000000000000, 0.000000000000000000 ) ) ;
#33 = APPROVAL_ROLE ( '' ) ;
#34 = DIRECTION ( 'NONE',  ( 1.000000000000000000, 0.000000000000000000, 0.000000000000000000 ) ) ;
#35 = EDGE_CURVE ( 'NONE', #63, #6, #147, .T. ) ;
#36 = FACE_BOUND ( 'NONE', #66, .T. ) ;
#37 = EDGE_LOOP ( 'NONE', ( #223, #279, #192, #121 ) ) ;
#38 = ADVANCED_BREP_SHAPE_REPRESENTATION ( 'b106', ( #239, #233 ), #272 ) ;
#39 = APPROVAL_ROLE ( '' ) ;
#40 = DIRECTION ( 'NONE',  ( -0.000000000000000000, -0.000000000000000000, -1.000000000000000000 ) ) ;
#41 = CARTESIAN_POINT ( 'NONE',  ( 0.000000000000000000, 0.000000000000000000, 318.0000000000000000 ) ) ;
#42 = ORIENTED_EDGE ( 'NONE', *, *, #291, .T. ) ;
#43 = CIRCLE ( 'NONE', #68, 0.2000000000000000944 ) ;
#44 = AXIS2_PLACEMENT_3D ( 'NONE', #199, #202, #76 ) ;
#45 = CC_DESIGN_APPROVAL ( #23, ( #99 ) ) ;
#46 = CARTESIAN_POINT ( 'NONE',  ( 2.799999999999999822, 0.000000000000000000, 3.199999999999980638 ) ) ;
#47 = VERTEX_POINT ( 'NONE', #53 ) ;
#48 = APPROVAL_PERSON_ORGANIZATION ( #88, #23, #13 ) ;
#49 = DIRECTION ( 'NONE',  ( 0.000000000000000000, 0.000000000000000000, -1.000000000000000000 ) ) ;
#50 = LINE ( 'NONE', #25, #275 ) ;
#51 = DIRECTION ( 'NONE',  ( 1.000000000000000000, 0.000000000000000000, 0.000000000000000000 ) ) ;
#52 = PRODUCT ( 'b106', 'b106', '', ( #209 ) ) ;
#53 = CARTESIAN_POINT ( 'NONE',  ( 2.600000000000000089, 3.184081677783118191E-16, 318.0000000000000000 ) ) ;
#54 = AXIS2_PLACEMENT_3D ( 'NONE', #4, #5, #108 ) ;
#55 = AXIS2_PLACEMENT_3D ( 'NONE', #241, #40, #17 ) ;
#56 = CC_DESIGN_PERSON_AND_ORGANIZATION_ASSIGNMENT ( #227, #9, ( #99 ) ) ;
#57 = CARTESIAN_POINT ( 'NONE',  ( 0.000000000000000000, 0.000000000000000000, 318.0000000000000000 ) ) ;
#58 = DATE_AND_TIME ( #183, #228 ) ;
#59 = CIRCLE ( 'NONE', #106, 5.000000000000000000 ) ;
#60 =( NAMED_UNIT ( * ) PLANE_ANGLE_UNIT ( ) SI_UNIT ( $, .RADIAN. ) );
#61 = ORIENTED_EDGE ( 'NONE', *, *, #134, .F. ) ;
#62 = AXIS2_PLACEMENT_3D ( 'NONE', #198, #286, #72 ) ;
#63 = VERTEX_POINT ( 'NONE', #250 ) ;
#64 = LOCAL_TIME ( 12, 1, 48.00000000000000000, #18 ) ;
#65 = DIRECTION ( 'NONE',  ( 0.000000000000000000, 0.000000000000000000, 1.000000000000000000 ) ) ;
#66 = EDGE_LOOP ( 'NONE', ( #170, #77 ) ) ;
#67 = EDGE_CURVE ( 'NONE', #63, #110, #91, .T. ) ;
#68 = AXIS2_PLACEMENT_3D ( 'NONE', #46, #266, #49 ) ;
#69 = DIRECTION ( 'NONE',  ( -0.000000000000000000, -0.000000000000000000, -1.000000000000000000 ) ) ;
#70 = EDGE_CURVE ( 'NONE', #110, #161, #43, .T. ) ;
#71 = ORIENTED_EDGE ( 'NONE', *, *, #14, .F. ) ;
#72 = DIRECTION ( 'NONE',  ( 1.000000000000000000, 0.000000000000000000, 0.000000000000000000 ) ) ;
#73 = AXIS2_PLACEMENT_3D ( 'NONE', #85, #278, #211 ) ;
#74 = VERTEX_POINT ( 'NONE', #247 ) ;
#75 = UNCERTAINTY_MEASURE_WITH_UNIT (LENGTH_MEASURE( 1.000000000000000082E-05 ), #276, 'distance_accuracy_value', 'NONE');
#76 = DIRECTION ( 'NONE',  ( 1.000000000000000000, 0.000000000000000000, 0.000000000000000000 ) ) ;
#77 = ORIENTED_EDGE ( 'NONE', *, *, #100, .T. ) ;
#78 = CARTESIAN_POINT ( 'NONE',  ( 0.000000000000000000, 0.000000000000000000, 3.000000000000000000 ) ) ;
#79 = TOROIDAL_SURFACE ( 'NONE', #84, 2.799999999999999822, 0.2000000000000000111 ) ;
#80 = FACE_OUTER_BOUND ( 'NONE', #303, .T. ) ;
#81 = PERSON_AND_ORGANIZATION ( #281, #95 ) ;
#82 = CARTESIAN_POINT ( 'NONE',  ( 0.000000000000000000, 0.000000000000000000, 3.000000000000000000 ) ) ;
#83 = DATE_TIME_ROLE ( 'creation_date' ) ;
#84 = AXIS2_PLACEMENT_3D ( 'NONE', #267, #177, #51 ) ;
#85 = CARTESIAN_POINT ( 'NONE',  ( 0.000000000000000000, 0.000000000000000000, 0.000000000000000000 ) ) ;
#86 = CC_DESIGN_PERSON_AND_ORGANIZATION_ASSIGNMENT ( #97, #164, ( #115 ) ) ;
#87 = VERTEX_POINT ( 'NONE', #102 ) ;
#88 = PERSON_AND_ORGANIZATION ( #281, #95 ) ;
#89 = LINE ( 'NONE', #111, #232 ) ;
#90 = DATE_AND_TIME ( #212, #64 ) ;
#91 = CIRCLE ( 'NONE', #185, 2.600000000000000089 ) ;
#92 = ORIENTED_EDGE ( 'NONE', *, *, #191, .T. ) ;
#93 = AXIS2_PLACEMENT_3D ( 'NONE', #57, #113, #207 ) ;
#94 = DATE_TIME_ROLE ( 'classification_date' ) ;
#95 = ORGANIZATION ( 'NEURÈENÝ', 'NEURÈENÝ', '' ) ;
#96 = ADVANCED_FACE ( 'NONE', ( #146 ), #242, .F. ) ;
#97 = PERSON_AND_ORGANIZATION ( #281, #95 ) ;
#98 = PERSON_AND_ORGANIZATION ( #281, #95 ) ;
#99 = PRODUCT_DEFINITION_FORMATION_WITH_SPECIFIED_SOURCE ( 'LIBOVOLNÝ', '', #52, .NOT_KNOWN. ) ;
#100 = EDGE_CURVE ( 'NONE', #6, #161, #249, .T. ) ;
#101 = DIRECTION ( 'NONE',  ( -0.000000000000000000, -0.000000000000000000, -1.000000000000000000 ) ) ;
#102 = CARTESIAN_POINT ( 'NONE',  ( -5.000000000000000000, 0.000000000000000000, 3.000000000000000000 ) ) ;
#103 = TOROIDAL_SURFACE ( 'NONE', #124, 2.799999999999999822, 0.2000000000000000111 ) ;
#104 = ORIENTED_EDGE ( 'NONE', *, *, #116, .T. ) ;
#105 = FACE_OUTER_BOUND ( 'NONE', #37, .T. ) ;
#106 = AXIS2_PLACEMENT_3D ( 'NONE', #78, #127, #2 ) ;
#107 = CC_DESIGN_APPROVAL ( #178, ( #269 ) ) ;
#108 = DIRECTION ( 'NONE',  ( -1.000000000000000000, 1.224646799147353207E-16, 0.000000000000000000 ) ) ;
#109 = EDGE_CURVE ( 'NONE', #47, #74, #179, .T. ) ;
#110 = VERTEX_POINT ( 'NONE', #292 ) ;
#111 = CARTESIAN_POINT ( 'NONE',  ( -5.000000000000000000, 0.000000000000000000, 3.000000000000000000 ) ) ;
#112 = DIRECTION ( 'NONE',  ( -0.000000000000000000, -0.000000000000000000, -1.000000000000000000 ) ) ;
#113 = DIRECTION ( 'NONE',  ( -0.000000000000000000, -0.000000000000000000, -1.000000000000000000 ) ) ;
#114 = PLANE ( 'NONE',  #167 ) ;
#115 = SECURITY_CLASSIFICATION ( '', '', #302 ) ;
#116 = EDGE_CURVE ( 'NONE', #110, #63, #135, .T. ) ;
#117 = DIRECTION ( 'NONE',  ( -0.000000000000000000, -0.000000000000000000, -1.000000000000000000 ) ) ;
#118 = ORIENTED_EDGE ( 'NONE', *, *, #195, .T. ) ;
#119 = DIRECTION ( 'NONE',  ( 0.000000000000000000, 0.000000000000000000, 1.000000000000000000 ) ) ;
#120 = PLANE ( 'NONE',  #214 ) ;
#121 = ORIENTED_EDGE ( 'NONE', *, *, #100, .F. ) ;
#122 = ADVANCED_FACE ( 'NONE', ( #165 ), #225, .T. ) ;
#123 = LOCAL_TIME ( 12, 1, 48.00000000000000000, #142 ) ;
#124 = AXIS2_PLACEMENT_3D ( 'NONE', #151, #270, #169 ) ;
#125 = DIRECTION ( 'NONE',  ( 0.000000000000000000, 0.000000000000000000, 1.000000000000000000 ) ) ;
#126 = ORIENTED_EDGE ( 'NONE', *, *, #109, .T. ) ;
#127 = DIRECTION ( 'NONE',  ( 0.000000000000000000, 0.000000000000000000, 1.000000000000000000 ) ) ;
#128 = AXIS2_PLACEMENT_3D ( 'NONE', #280, #65, #34 ) ;
#129 = ADVANCED_FACE ( 'NONE', ( #80 ), #120, .T. ) ;
#130 = ORIENTED_EDGE ( 'NONE', *, *, #291, .F. ) ;
#131 = ORIENTED_EDGE ( 'NONE', *, *, #168, .F. ) ;
#132 = DIRECTION ( 'NONE',  ( -1.000000000000000000, 0.000000000000000000, 0.000000000000000000 ) ) ;
#133 = CARTESIAN_POINT ( 'NONE',  ( 0.000000000000000000, 0.000000000000000000, 0.000000000000000000 ) ) ;
#134 = EDGE_CURVE ( 'NONE', #87, #162, #89, .T. ) ;
#135 = CIRCLE ( 'NONE', #128, 2.600000000000000089 ) ;
#136 = APPROVAL_DATE_TIME ( #229, #178 ) ;
#137 = CALENDAR_DATE ( 2022, 20, 6 ) ;
#138 = ADVANCED_FACE ( 'NONE', ( #180 ), #140, .T. ) ;
#139 = DIRECTION ( 'NONE',  ( 0.000000000000000000, 0.000000000000000000, 1.000000000000000000 ) ) ;
#140 = CYLINDRICAL_SURFACE ( 'NONE', #306, 5.000000000000000000 ) ;
#141 = CC_DESIGN_APPROVAL ( #282, ( #115 ) ) ;
#142 = COORDINATED_UNIVERSAL_TIME_OFFSET ( 1, 0, .AHEAD. ) ;
#143 = ORIENTED_EDGE ( 'NONE', *, *, #158, .T. ) ;
#144 = VECTOR ( 'NONE', #245, 1000.000000000000000 ) ;
#145 = DATE_AND_TIME ( #262, #20 ) ;
#146 = FACE_OUTER_BOUND ( 'NONE', #190, .T. ) ;
#147 = CIRCLE ( 'NONE', #54, 0.2000000000000000944 ) ;
#148 = ORIENTED_EDGE ( 'NONE', *, *, #243, .F. ) ;
#149 = DIRECTION ( 'NONE',  ( 0.000000000000000000, 0.000000000000000000, 1.000000000000000000 ) ) ;
#150 = ADVANCED_FACE ( 'NONE', ( #7 ), #204, .T. ) ;
#151 = CARTESIAN_POINT ( 'NONE',  ( 0.000000000000000000, 0.000000000000000000, 3.199999999999980638 ) ) ;
#152 = EDGE_LOOP ( 'NONE', ( #289, #21, #201, #203 ) ) ;
#153 = AXIS2_PLACEMENT_3D ( 'NONE', #29, #274, #259 ) ;
#154 = CARTESIAN_POINT ( 'NONE',  ( 5.000000000000000000, 6.123233995736766282E-16, 0.000000000000000000 ) ) ;
#155 = APPROVAL_DATE_TIME ( #58, #23 ) ;
#156 = APPROVAL_STATUS ( 'not_yet_approved' ) ;
#157 = CIRCLE ( 'NONE', #44, 2.600000000000000089 ) ;
#158 = EDGE_CURVE ( 'NONE', #47, #110, #160, .T. ) ;
#159 = PERSON_AND_ORGANIZATION_ROLE ( 'design_owner' ) ;
#160 = LINE ( 'NONE', #294, #173 ) ;
#161 = VERTEX_POINT ( 'NONE', #215 ) ;
#162 = VERTEX_POINT ( 'NONE', #284 ) ;
#163 = CC_DESIGN_DATE_AND_TIME_ASSIGNMENT ( #90, #94, ( #115 ) ) ;
#164 = PERSON_AND_ORGANIZATION_ROLE ( 'classification_officer' ) ;
#165 = FACE_OUTER_BOUND ( 'NONE', #175, .T. ) ;
#166 = ORIENTED_EDGE ( 'NONE', *, *, #27, .F. ) ;
#167 = AXIS2_PLACEMENT_3D ( 'NONE', #82, #119, #12 ) ;
#168 = EDGE_CURVE ( 'NONE', #161, #6, #26, .T. ) ;
#169 = DIRECTION ( 'NONE',  ( 1.000000000000000000, 0.000000000000000000, 0.000000000000000000 ) ) ;
#170 = ORIENTED_EDGE ( 'NONE', *, *, #168, .T. ) ;
#171 = ORIENTED_EDGE ( 'NONE', *, *, #67, .F. ) ;
#172 = CC_DESIGN_PERSON_AND_ORGANIZATION_ASSIGNMENT ( #98, #301, ( #99 ) ) ;
#173 = VECTOR ( 'NONE', #117, 1000.000000000000000 ) ;
#174 = APPROVAL_PERSON_ORGANIZATION ( #81, #178, #33 ) ;
#175 = EDGE_LOOP ( 'NONE', ( #166, #148, #254, #42 ) ) ;
#176 = LINE ( 'NONE', #220, #144 ) ;
#177 = DIRECTION ( 'NONE',  ( 0.000000000000000000, 0.000000000000000000, 1.000000000000000000 ) ) ;
#178 = APPROVAL ( #156, 'NEURÈENÝ' ) ;
#179 = CIRCLE ( 'NONE', #62, 2.600000000000000089 ) ;
#180 = FACE_OUTER_BOUND ( 'NONE', #261, .T. ) ;
#181 = AXIS2_PLACEMENT_3D ( 'NONE', #213, #304, #219 ) ;
#182 = PRODUCT_DEFINITION_SHAPE ( 'NONE', 'NONE',  #269 ) ;
#183 = CALENDAR_DATE ( 2022, 20, 6 ) ;
#184 = APPLICATION_PROTOCOL_DEFINITION ( 'international standard', 'config_control_design', 1994, #226 ) ;
#185 = AXIS2_PLACEMENT_3D ( 'NONE', #1, #125, #218 ) ;
#186 = COORDINATED_UNIVERSAL_TIME_OFFSET ( 1, 0, .AHEAD. ) ;
#187 = CC_DESIGN_PERSON_AND_ORGANIZATION_ASSIGNMENT ( #11, #231, ( #269 ) ) ;
#188 = DIRECTION ( 'NONE',  ( 1.000000000000000000, 0.000000000000000000, -0.000000000000000000 ) ) ;
#189 = FACE_OUTER_BOUND ( 'NONE', #235, .T. ) ;
#190 = EDGE_LOOP ( 'NONE', ( #130, #16 ) ) ;
#191 = EDGE_CURVE ( 'NONE', #237, #87, #8, .T. ) ;
#192 = ORIENTED_EDGE ( 'NONE', *, *, #70, .T. ) ;
#193 = CIRCLE ( 'NONE', #73, 5.000000000000000000 ) ;
#194 = PERSON_AND_ORGANIZATION ( #281, #95 ) ;
#195 = EDGE_CURVE ( 'NONE', #74, #47, #157, .T. ) ;
#196 = APPROVAL_STATUS ( 'not_yet_approved' ) ;
#197 = DIRECTION ( 'NONE',  ( 1.000000000000000000, 0.000000000000000000, 0.000000000000000000 ) ) ;
#198 = CARTESIAN_POINT ( 'NONE',  ( 0.000000000000000000, 0.000000000000000000, 318.0000000000000000 ) ) ;
#199 = CARTESIAN_POINT ( 'NONE',  ( 0.000000000000000000, 0.000000000000000000, 318.0000000000000000 ) ) ;
#200 = VERTEX_POINT ( 'NONE', #154 ) ;
#201 = ORIENTED_EDGE ( 'NONE', *, *, #14, .T. ) ;
#202 = DIRECTION ( 'NONE',  ( 0.000000000000000000, 0.000000000000000000, 1.000000000000000000 ) ) ;
#203 = ORIENTED_EDGE ( 'NONE', *, *, #67, .T. ) ;
#204 = CYLINDRICAL_SURFACE ( 'NONE', #93, 2.600000000000000089 ) ;
#205 = DIRECTION ( 'NONE',  ( -1.000000000000000000, 0.000000000000000000, 0.000000000000000000 ) ) ;
#206 = LOCAL_TIME ( 12, 1, 48.00000000000000000, #234 ) ;
#207 = DIRECTION ( 'NONE',  ( -1.000000000000000000, 0.000000000000000000, 0.000000000000000000 ) ) ;
#208 = CARTESIAN_POINT ( 'NONE',  ( 0.000000000000000000, 0.000000000000000000, 0.000000000000000000 ) ) ;
#209 = MECHANICAL_CONTEXT ( 'NONE', #226, 'mechanical' ) ;
#210 = ORIENTED_EDGE ( 'NONE', *, *, #109, .F. ) ;
#211 = DIRECTION ( 'NONE',  ( 1.000000000000000000, 0.000000000000000000, 0.000000000000000000 ) ) ;
#212 = CALENDAR_DATE ( 2022, 20, 6 ) ;
#213 = CARTESIAN_POINT ( 'NONE',  ( 0.000000000000000000, 0.000000000000000000, 3.000000000000000000 ) ) ;
#214 = AXIS2_PLACEMENT_3D ( 'NONE', #41, #236, #188 ) ;
#215 = CARTESIAN_POINT ( 'NONE',  ( 2.799999999999999822, 0.000000000000000000, 2.999999999999990674 ) ) ;
#216 = DIRECTION ( 'NONE',  ( 1.000000000000000000, 0.000000000000000000, -0.000000000000000000 ) ) ;
#217 = CC_DESIGN_PERSON_AND_ORGANIZATION_ASSIGNMENT ( #295, #159, ( #52 ) ) ;
#218 = DIRECTION ( 'NONE',  ( 1.000000000000000000, 0.000000000000000000, 0.000000000000000000 ) ) ;
#219 = DIRECTION ( 'NONE',  ( 1.000000000000000000, 0.000000000000000000, 0.000000000000000000 ) ) ;
#220 = CARTESIAN_POINT ( 'NONE',  ( -2.600000000000000089, 0.000000000000000000, 318.0000000000000000 ) ) ;
#221 = CARTESIAN_POINT ( 'NONE',  ( 0.000000000000000000, 0.000000000000000000, 318.0000000000000000 ) ) ;
#222 = AXIS2_PLACEMENT_3D ( 'NONE', #19, #149, #216 ) ;
#223 = ORIENTED_EDGE ( 'NONE', *, *, #35, .F. ) ;
#224 = FACE_OUTER_BOUND ( 'NONE', #300, .T. ) ;
#225 = CYLINDRICAL_SURFACE ( 'NONE', #153, 5.000000000000000000 ) ;
#226 = APPLICATION_CONTEXT ( 'configuration controlled 3d designs of mechanical parts and assemblies' ) ;
#227 = PERSON_AND_ORGANIZATION ( #281, #95 ) ;
#228 = LOCAL_TIME ( 12, 1, 48.00000000000000000, #186 ) ;
#229 = DATE_AND_TIME ( #137, #123 ) ;
#230 = ADVANCED_FACE ( 'NONE', ( #246 ), #290, .T. ) ;
#231 = PERSON_AND_ORGANIZATION_ROLE ( 'creator' ) ;
#232 = VECTOR ( 'NONE', #15, 1000.000000000000000 ) ;
#233 = AXIS2_PLACEMENT_3D ( 'NONE', #208, #139, #32 ) ;
#234 = COORDINATED_UNIVERSAL_TIME_OFFSET ( 1, 0, .AHEAD. ) ;
#235 = EDGE_LOOP ( 'NONE', ( #248, #92 ) ) ;
#236 = DIRECTION ( 'NONE',  ( 0.000000000000000000, 0.000000000000000000, 1.000000000000000000 ) ) ;
#237 = VERTEX_POINT ( 'NONE', #22 ) ;
#238 = SHAPE_DEFINITION_REPRESENTATION ( #182, #38 ) ;
#239 = MANIFOLD_SOLID_BREP ( 'Zaoblit1', #244 ) ;
#240 = APPROVAL_PERSON_ORGANIZATION ( #194, #282, #39 ) ;
#241 = CARTESIAN_POINT ( 'NONE',  ( 0.000000000000000000, 0.000000000000000000, 3.000000000000000000 ) ) ;
#242 = PLANE ( 'NONE',  #222 ) ;
#243 = EDGE_CURVE ( 'NONE', #87, #237, #59, .T. ) ;
#244 = CLOSED_SHELL ( 'NONE', ( #3, #150, #138, #122, #305, #96, #230, #129, #260 ) ) ;
#245 = DIRECTION ( 'NONE',  ( -0.000000000000000000, -0.000000000000000000, -1.000000000000000000 ) ) ;
#246 = FACE_OUTER_BOUND ( 'NONE', #152, .T. ) ;
#247 = CARTESIAN_POINT ( 'NONE',  ( -2.600000000000000089, 0.000000000000000000, 318.0000000000000000 ) ) ;
#248 = ORIENTED_EDGE ( 'NONE', *, *, #243, .T. ) ;
#249 = CIRCLE ( 'NONE', #264, 2.799999999999999822 ) ;
#250 = CARTESIAN_POINT ( 'NONE',  ( -2.600000000000000089, 0.000000000000000000, 3.199999999999980638 ) ) ;
#251 = DIRECTION ( 'NONE',  ( -0.000000000000000000, -0.000000000000000000, -1.000000000000000000 ) ) ;
#252 = CC_DESIGN_SECURITY_CLASSIFICATION ( #115, ( #99 ) ) ;
#253 = APPLICATION_PROTOCOL_DEFINITION ( 'international standard', 'config_control_design', 1994, #296 ) ;
#254 = ORIENTED_EDGE ( 'NONE', *, *, #134, .T. ) ;
#255 = APPROVAL_STATUS ( 'not_yet_approved' ) ;
#256 = AXIS2_PLACEMENT_3D ( 'NONE', #133, #265, #297 ) ;
#257 = ORIENTED_EDGE ( 'NONE', *, *, #35, .T. ) ;
#258 = APPROVAL_DATE_TIME ( #145, #282 ) ;
#259 = DIRECTION ( 'NONE',  ( -1.000000000000000000, 0.000000000000000000, 0.000000000000000000 ) ) ;
#260 = ADVANCED_FACE ( 'NONE', ( #105 ), #79, .F. ) ;
#261 = EDGE_LOOP ( 'NONE', ( #263, #268, #28, #61 ) ) ;
#262 = CALENDAR_DATE ( 2022, 20, 6 ) ;
#263 = ORIENTED_EDGE ( 'NONE', *, *, #191, .F. ) ;
#264 = AXIS2_PLACEMENT_3D ( 'NONE', #307, #101, #197 ) ;
#265 = DIRECTION ( 'NONE',  ( 0.000000000000000000, 0.000000000000000000, 1.000000000000000000 ) ) ;
#266 = DIRECTION ( 'NONE',  ( 0.000000000000000000, -1.000000000000000000, 0.000000000000000000 ) ) ;
#267 = CARTESIAN_POINT ( 'NONE',  ( 0.000000000000000000, 0.000000000000000000, 3.199999999999980638 ) ) ;
#268 = ORIENTED_EDGE ( 'NONE', *, *, #27, .T. ) ;
#269 = PRODUCT_DEFINITION ( 'NEZNÁMÝ', '', #99, #293 ) ;
#270 = DIRECTION ( 'NONE',  ( 0.000000000000000000, 0.000000000000000000, 1.000000000000000000 ) ) ;
#271 = CARTESIAN_POINT ( 'NONE',  ( 0.000000000000000000, 0.000000000000000000, 3.000000000000000000 ) ) ;
#272 =( GEOMETRIC_REPRESENTATION_CONTEXT ( 3 ) GLOBAL_UNCERTAINTY_ASSIGNED_CONTEXT ( ( #75 ) ) GLOBAL_UNIT_ASSIGNED_CONTEXT ( ( #276, #60, #10 ) ) REPRESENTATION_CONTEXT ( 'NONE', 'WORKASPACE' ) );
#273 = EDGE_CURVE ( 'NONE', #200, #162, #298, .T. ) ;
#274 = DIRECTION ( 'NONE',  ( -0.000000000000000000, -0.000000000000000000, -1.000000000000000000 ) ) ;
#275 = VECTOR ( 'NONE', #69, 1000.000000000000000 ) ;
#276 =( LENGTH_UNIT ( ) NAMED_UNIT ( * ) SI_UNIT ( .MILLI., .METRE. ) );
#277 = AXIS2_PLACEMENT_3D ( 'NONE', #221, #112, #205 ) ;
#278 = DIRECTION ( 'NONE',  ( 0.000000000000000000, 0.000000000000000000, 1.000000000000000000 ) ) ;
#279 = ORIENTED_EDGE ( 'NONE', *, *, #116, .F. ) ;
#280 = CARTESIAN_POINT ( 'NONE',  ( 0.000000000000000000, 0.000000000000000000, 3.199999999999980638 ) ) ;
#281 = PERSON ( 'NEURÈENÝ', 'NEURÈENÝ', 'NEURÈENÝ', ('NEURÈENÝ'), ('NEURÈENÝ'), ('NEURÈENÝ') ) ;
#282 = APPROVAL ( #196, 'NEURÈENÝ' ) ;
#283 = COORDINATED_UNIVERSAL_TIME_OFFSET ( 1, 0, .AHEAD. ) ;
#284 = CARTESIAN_POINT ( 'NONE',  ( -5.000000000000000000, 0.000000000000000000, 0.000000000000000000 ) ) ;
#285 = ORIENTED_EDGE ( 'NONE', *, *, #70, .F. ) ;
#286 = DIRECTION ( 'NONE',  ( 0.000000000000000000, 0.000000000000000000, 1.000000000000000000 ) ) ;
#287 = EDGE_LOOP ( 'NONE', ( #210, #143, #104, #71 ) ) ;
#288 = PRODUCT_RELATED_PRODUCT_CATEGORY ( 'detail', '', ( #52 ) ) ;
#289 = ORIENTED_EDGE ( 'NONE', *, *, #158, .F. ) ;
#290 = CYLINDRICAL_SURFACE ( 'NONE', #277, 2.600000000000000089 ) ;
#291 = EDGE_CURVE ( 'NONE', #162, #200, #193, .T. ) ;
#292 = CARTESIAN_POINT ( 'NONE',  ( 2.600000000000000089, 3.184081677783118191E-16, 3.199999999999980638 ) ) ;
#293 = DESIGN_CONTEXT ( 'detailed design', #296, 'design' ) ;
#294 = CARTESIAN_POINT ( 'NONE',  ( 2.600000000000000089, 3.184081677783118191E-16, 318.0000000000000000 ) ) ;
#295 = PERSON_AND_ORGANIZATION ( #281, #95 ) ;
#296 = APPLICATION_CONTEXT ( 'configuration controlled 3d designs of mechanical parts and assemblies' ) ;
#297 = DIRECTION ( 'NONE',  ( 1.000000000000000000, 0.000000000000000000, 0.000000000000000000 ) ) ;
#298 = CIRCLE ( 'NONE', #256, 5.000000000000000000 ) ;
#299 = CALENDAR_DATE ( 2022, 20, 6 ) ;
#300 = EDGE_LOOP ( 'NONE', ( #171, #257, #131, #285 ) ) ;
#301 = PERSON_AND_ORGANIZATION_ROLE ( 'design_supplier' ) ;
#302 = SECURITY_CLASSIFICATION_LEVEL ( 'unclassified' ) ;
#303 = EDGE_LOOP ( 'NONE', ( #118, #126 ) ) ;
#304 = DIRECTION ( 'NONE',  ( 0.000000000000000000, 0.000000000000000000, 1.000000000000000000 ) ) ;
#305 = ADVANCED_FACE ( 'NONE', ( #36, #189 ), #114, .T. ) ;
#306 = AXIS2_PLACEMENT_3D ( 'NONE', #271, #251, #132 ) ;
#307 = CARTESIAN_POINT ( 'NONE',  ( 0.000000000000000000, 0.000000000000000000, 3.000000000000000000 ) ) ;
ENDSEC;
END-ISO-10303-21;
