ISO-10303-21;
HEADER;
FILE_DESCRIPTION (( 'STEP AP203' ),
    '1' );
FILE_NAME ('f85f.STEP',
    '2022-06-20T10:31:34',
    ( '' ),
    ( '' ),
    'SwSTEP 2.0',
    'SolidWorks 2019',
    '' );
FILE_SCHEMA (( 'CONFIG_CONTROL_DESIGN' ));
ENDSEC;

DATA;
#1 = CARTESIAN_POINT ( 'NONE',  ( 0.000000000000000000, 0.000000000000000000, 101.2000000000000171 ) ) ;
#2 = ADVANCED_FACE ( 'NONE', ( #70 ), #249, .T. ) ;
#3 = PLANE ( 'NONE',  #157 ) ;
#4 = EDGE_LOOP ( 'NONE', ( #119, #17, #141, #307 ) ) ;
#5 = FACE_OUTER_BOUND ( 'NONE', #212, .T. ) ;
#6 = LINE ( 'NONE', #101, #167 ) ;
#7 = DIRECTION ( 'NONE',  ( -1.000000000000000000, 1.224646799147352714E-16, 0.000000000000000000 ) ) ;
#8 = FACE_BOUND ( 'NONE', #164, .T. ) ;
#9 = FACE_OUTER_BOUND ( 'NONE', #4, .T. ) ;
#10 = MECHANICAL_CONTEXT ( 'NONE', #184, 'mechanical' ) ;
#11 = PRODUCT ( 'f85f', 'f85f', '', ( #10 ) ) ;
#12 = DIRECTION ( 'NONE',  ( -1.000000000000000000, 0.000000000000000000, 0.000000000000000000 ) ) ;
#13 = SECURITY_CLASSIFICATION_LEVEL ( 'unclassified' ) ;
#14 = DIRECTION ( 'NONE',  ( -0.000000000000000000, -0.000000000000000000, -1.000000000000000000 ) ) ;
#15 = PERSON_AND_ORGANIZATION ( #219, #270 ) ;
#16 = CIRCLE ( 'NONE', #190, 1.250000000000000000 ) ;
#17 = ORIENTED_EDGE ( 'NONE', *, *, #100, .F. ) ;
#18 = EDGE_CURVE ( 'NONE', #65, #192, #128, .T. ) ;
#19 = DIRECTION ( 'NONE',  ( 0.000000000000000000, 0.000000000000000000, 1.000000000000000000 ) ) ;
#20 = CIRCLE ( 'NONE', #291, 1.250000000000000000 ) ;
#21 = CC_DESIGN_APPROVAL ( #89, ( #203 ) ) ;
#22 = VERTEX_POINT ( 'NONE', #121 ) ;
#23 = ORIENTED_EDGE ( 'NONE', *, *, #215, .T. ) ;
#24 = ADVANCED_FACE ( 'NONE', ( #5 ), #3, .T. ) ;
#25 = DIRECTION ( 'NONE',  ( 1.000000000000000000, 0.000000000000000000, 0.000000000000000000 ) ) ;
#26 = DIRECTION ( 'NONE',  ( -1.000000000000000000, 0.000000000000000000, 0.000000000000000000 ) ) ;
#27 = AXIS2_PLACEMENT_3D ( 'NONE', #38, #233, #93 ) ;
#28 = ORIENTED_EDGE ( 'NONE', *, *, #198, .F. ) ;
#29 = VERTEX_POINT ( 'NONE', #74 ) ;
#30 = DIRECTION ( 'NONE',  ( 1.000000000000000000, 0.000000000000000000, 0.000000000000000000 ) ) ;
#31 = CARTESIAN_POINT ( 'NONE',  ( 0.5000000000000000000, 6.123233995736766036E-17, 101.2000000000000171 ) ) ;
#32 = ADVANCED_FACE ( 'NONE', ( #47 ), #250, .T. ) ;
#33 = LINE ( 'NONE', #107, #123 ) ;
#34 =( NAMED_UNIT ( * ) PLANE_ANGLE_UNIT ( ) SI_UNIT ( $, .RADIAN. ) );
#35 = CARTESIAN_POINT ( 'NONE',  ( -0.5000000000000000000, 0.000000000000000000, 101.2000000000000171 ) ) ;
#36 = DATE_AND_TIME ( #285, #191 ) ;
#37 = CARTESIAN_POINT ( 'NONE',  ( 0.6999999999999999556, 0.000000000000000000, 1.399999999999998579 ) ) ;
#38 = CARTESIAN_POINT ( 'NONE',  ( 0.000000000000000000, 0.000000000000000000, 0.000000000000000000 ) ) ;
#39 = DIRECTION ( 'NONE',  ( 0.000000000000000000, 0.000000000000000000, -1.000000000000000000 ) ) ;
#40 = CIRCLE ( 'NONE', #116, 1.250000000000000000 ) ;
#41 = APPROVAL_ROLE ( '' ) ;
#42 = DIRECTION ( 'NONE',  ( -0.000000000000000000, -0.000000000000000000, -1.000000000000000000 ) ) ;
#43 = CIRCLE ( 'NONE', #279, 0.5000000000000000000 ) ;
#44 = CLOSED_SHELL ( 'NONE', ( #50, #2, #32, #237, #71, #298, #245, #24, #48 ) ) ;
#45 = EDGE_CURVE ( 'NONE', #192, #22, #6, .T. ) ;
#46 = MANIFOLD_SOLID_BREP ( 'Zaoblit1', #44 ) ;
#47 = FACE_OUTER_BOUND ( 'NONE', #63, .T. ) ;
#48 = ADVANCED_FACE ( 'NONE', ( #169 ), #213, .F. ) ;
#49 = CARTESIAN_POINT ( 'NONE',  ( 0.000000000000000000, 0.000000000000000000, 1.399999999999998579 ) ) ;
#50 = ADVANCED_FACE ( 'NONE', ( #102 ), #99, .F. ) ;
#51 = DIRECTION ( 'NONE',  ( 0.000000000000000000, 0.000000000000000000, 1.000000000000000000 ) ) ;
#52 = AXIS2_PLACEMENT_3D ( 'NONE', #37, #132, #39 ) ;
#53 = DIRECTION ( 'NONE',  ( -1.000000000000000000, 0.000000000000000000, 0.000000000000000000 ) ) ;
#54 = APPROVAL_ROLE ( '' ) ;
#55 = CARTESIAN_POINT ( 'NONE',  ( -0.6999999999999999556, 8.572527594031471957E-17, 1.399999999999998579 ) ) ;
#56 = APPROVAL_DATE_TIME ( #36, #290 ) ;
#57 = AXIS2_PLACEMENT_3D ( 'NONE', #146, #296, #76 ) ;
#58 = FACE_OUTER_BOUND ( 'NONE', #185, .T. ) ;
#59 = EDGE_CURVE ( 'NONE', #22, #66, #40, .T. ) ;
#60 = PERSON_AND_ORGANIZATION ( #219, #270 ) ;
#61 = CARTESIAN_POINT ( 'NONE',  ( 0.5000000000000000000, 6.123233995736766036E-17, 101.2000000000000171 ) ) ;
#62 = DATE_TIME_ROLE ( 'classification_date' ) ;
#63 = EDGE_LOOP ( 'NONE', ( #28, #195, #182, #306 ) ) ;
#64 = LOCAL_TIME ( 12, 31, 34.00000000000000000, #247 ) ;
#65 = VERTEX_POINT ( 'NONE', #88 ) ;
#66 = VERTEX_POINT ( 'NONE', #149 ) ;
#67 = ORIENTED_EDGE ( 'NONE', *, *, #186, .F. ) ;
#68 = SHAPE_DEFINITION_REPRESENTATION ( #224, #84 ) ;
#69 = AXIS2_PLACEMENT_3D ( 'NONE', #294, #168, #26 ) ;
#70 = FACE_OUTER_BOUND ( 'NONE', #253, .T. ) ;
#71 = ADVANCED_FACE ( 'NONE', ( #8, #58 ), #305, .T. ) ;
#72 = DIRECTION ( 'NONE',  ( -0.000000000000000000, -0.000000000000000000, -1.000000000000000000 ) ) ;
#73 =( GEOMETRIC_REPRESENTATION_CONTEXT ( 3 ) GLOBAL_UNCERTAINTY_ASSIGNED_CONTEXT ( ( #278 ) ) GLOBAL_UNIT_ASSIGNED_CONTEXT ( ( #80, #34, #257 ) ) REPRESENTATION_CONTEXT ( 'NONE', 'WORKASPACE' ) );
#74 = CARTESIAN_POINT ( 'NONE',  ( 0.6999999999999999556, 0.000000000000000000, 1.199999999999999289 ) ) ;
#75 = CARTESIAN_POINT ( 'NONE',  ( 0.000000000000000000, 0.000000000000000000, 0.000000000000000000 ) ) ;
#76 = DIRECTION ( 'NONE',  ( 1.000000000000000000, 0.000000000000000000, 0.000000000000000000 ) ) ;
#77 = VECTOR ( 'NONE', #42, 1000.000000000000000 ) ;
#78 = CC_DESIGN_DATE_AND_TIME_ASSIGNMENT ( #113, #62, ( #203 ) ) ;
#79 = DIRECTION ( 'NONE',  ( 0.000000000000000000, 0.000000000000000000, 1.000000000000000000 ) ) ;
#80 =( LENGTH_UNIT ( ) NAMED_UNIT ( * ) SI_UNIT ( .MILLI., .METRE. ) );
#81 = LINE ( 'NONE', #61, #303 ) ;
#82 = COORDINATED_UNIVERSAL_TIME_OFFSET ( 1, 0, .AHEAD. ) ;
#83 = CARTESIAN_POINT ( 'NONE',  ( 0.000000000000000000, 0.000000000000000000, 101.2000000000000171 ) ) ;
#84 = ADVANCED_BREP_SHAPE_REPRESENTATION ( 'f85f', ( #46, #27 ), #73 ) ;
#85 = AXIS2_PLACEMENT_3D ( 'NONE', #238, #299, #12 ) ;
#86 = COORDINATED_UNIVERSAL_TIME_OFFSET ( 1, 0, .AHEAD. ) ;
#87 = APPROVAL_PERSON_ORGANIZATION ( #240, #290, #54 ) ;
#88 = CARTESIAN_POINT ( 'NONE',  ( -1.250000000000000000, 0.000000000000000000, 1.199999999999999956 ) ) ;
#89 = APPROVAL ( #115, 'NEURÈENÝ' ) ;
#90 = PERSON_AND_ORGANIZATION_ROLE ( 'creator' ) ;
#91 = EDGE_LOOP ( 'NONE', ( #94, #246, #216, #273 ) ) ;
#92 = EDGE_CURVE ( 'NONE', #241, #29, #194, .T. ) ;
#93 = DIRECTION ( 'NONE',  ( 1.000000000000000000, 0.000000000000000000, 0.000000000000000000 ) ) ;
#94 = ORIENTED_EDGE ( 'NONE', *, *, #148, .F. ) ;
#95 = EDGE_LOOP ( 'NONE', ( #144, #293, #159, #251 ) ) ;
#96 = ORIENTED_EDGE ( 'NONE', *, *, #186, .T. ) ;
#97 = CARTESIAN_POINT ( 'NONE',  ( 0.000000000000000000, 0.000000000000000000, 1.199999999999999956 ) ) ;
#98 = CARTESIAN_POINT ( 'NONE',  ( 0.000000000000000000, 0.000000000000000000, 1.199999999999999956 ) ) ;
#99 = TOROIDAL_SURFACE ( 'NONE', #252, 0.6999999999999999556, 0.2000000000000000111 ) ;
#100 = EDGE_CURVE ( 'NONE', #244, #172, #137, .T. ) ;
#101 = CARTESIAN_POINT ( 'NONE',  ( 1.250000000000000000, 1.530808498934191571E-16, 1.199999999999999956 ) ) ;
#102 = FACE_OUTER_BOUND ( 'NONE', #95, .T. ) ;
#103 = CIRCLE ( 'NONE', #199, 0.6999999999999999556 ) ;
#104 = DIRECTION ( 'NONE',  ( 1.000000000000000000, 0.000000000000000000, 0.000000000000000000 ) ) ;
#105 = CARTESIAN_POINT ( 'NONE',  ( 1.250000000000000000, 1.530808498934191571E-16, 1.199999999999999956 ) ) ;
#106 = COORDINATED_UNIVERSAL_TIME_OFFSET ( 1, 0, .AHEAD. ) ;
#107 = CARTESIAN_POINT ( 'NONE',  ( -1.250000000000000000, 0.000000000000000000, 1.199999999999999956 ) ) ;
#108 = APPROVAL ( #289, 'NEURÈENÝ' ) ;
#109 = AXIS2_PLACEMENT_3D ( 'NONE', #98, #221, #223 ) ;
#110 = CARTESIAN_POINT ( 'NONE',  ( 0.000000000000000000, 0.000000000000000000, 1.399999999999998579 ) ) ;
#111 = DIRECTION ( 'NONE',  ( 0.000000000000000000, 0.000000000000000000, 1.000000000000000000 ) ) ;
#112 = CIRCLE ( 'NONE', #57, 0.5000000000000000000 ) ;
#113 = DATE_AND_TIME ( #239, #258 ) ;
#114 = ORIENTED_EDGE ( 'NONE', *, *, #18, .T. ) ;
#115 = APPROVAL_STATUS ( 'not_yet_approved' ) ;
#116 = AXIS2_PLACEMENT_3D ( 'NONE', #75, #51, #104 ) ;
#117 = APPROVAL_DATE_TIME ( #165, #89 ) ;
#118 = ORIENTED_EDGE ( 'NONE', *, *, #171, .F. ) ;
#119 = ORIENTED_EDGE ( 'NONE', *, *, #266, .F. ) ;
#120 = CC_DESIGN_SECURITY_CLASSIFICATION ( #203, ( #304 ) ) ;
#121 = CARTESIAN_POINT ( 'NONE',  ( 1.250000000000000000, 1.530808498934191571E-16, 0.000000000000000000 ) ) ;
#122 = DIRECTION ( 'NONE',  ( -0.000000000000000000, -0.000000000000000000, -1.000000000000000000 ) ) ;
#123 = VECTOR ( 'NONE', #14, 1000.000000000000000 ) ;
#124 = ORIENTED_EDGE ( 'NONE', *, *, #45, .F. ) ;
#125 = APPROVAL_PERSON_ORGANIZATION ( #183, #108, #300 ) ;
#126 = DESIGN_CONTEXT ( 'detailed design', #151, 'design' ) ;
#127 = CARTESIAN_POINT ( 'NONE',  ( 0.000000000000000000, 0.000000000000000000, 1.199999999999999956 ) ) ;
#128 = CIRCLE ( 'NONE', #109, 1.250000000000000000 ) ;
#129 = DIRECTION ( 'NONE',  ( 1.000000000000000000, 0.000000000000000000, 0.000000000000000000 ) ) ;
#130 = DIRECTION ( 'NONE',  ( 1.000000000000000000, 0.000000000000000000, -0.000000000000000000 ) ) ;
#131 = PERSON_AND_ORGANIZATION_ROLE ( 'creator' ) ;
#132 = DIRECTION ( 'NONE',  ( 0.000000000000000000, -1.000000000000000000, 0.000000000000000000 ) ) ;
#133 = DIRECTION ( 'NONE',  ( -0.000000000000000000, -0.000000000000000000, -1.000000000000000000 ) ) ;
#134 = COORDINATED_UNIVERSAL_TIME_OFFSET ( 1, 0, .AHEAD. ) ;
#135 = PERSON_AND_ORGANIZATION ( #219, #270 ) ;
#136 = CC_DESIGN_PERSON_AND_ORGANIZATION_ASSIGNMENT ( #261, #236, ( #304 ) ) ;
#137 = CIRCLE ( 'NONE', #274, 0.5000000000000000000 ) ;
#138 = FACE_OUTER_BOUND ( 'NONE', #272, .T. ) ;
#139 = ORIENTED_EDGE ( 'NONE', *, *, #59, .F. ) ;
#140 = CC_DESIGN_PERSON_AND_ORGANIZATION_ASSIGNMENT ( #178, #263, ( #11 ) ) ;
#141 = ORIENTED_EDGE ( 'NONE', *, *, #295, .T. ) ;
#142 = EDGE_CURVE ( 'NONE', #65, #66, #33, .T. ) ;
#143 = ORIENTED_EDGE ( 'NONE', *, *, #266, .T. ) ;
#144 = ORIENTED_EDGE ( 'NONE', *, *, #275, .F. ) ;
#145 = DIRECTION ( 'NONE',  ( 0.000000000000000000, 0.000000000000000000, 1.000000000000000000 ) ) ;
#146 = CARTESIAN_POINT ( 'NONE',  ( 0.000000000000000000, 0.000000000000000000, 101.2000000000000171 ) ) ;
#147 = APPROVAL_STATUS ( 'not_yet_approved' ) ;
#148 = EDGE_CURVE ( 'NONE', #188, #229, #227, .T. ) ;
#149 = CARTESIAN_POINT ( 'NONE',  ( -1.250000000000000000, 0.000000000000000000, 0.000000000000000000 ) ) ;
#150 = APPROVAL_DATE_TIME ( #181, #108 ) ;
#151 = APPLICATION_CONTEXT ( 'configuration controlled 3d designs of mechanical parts and assemblies' ) ;
#152 = DIRECTION ( 'NONE',  ( -0.000000000000000000, -0.000000000000000000, -1.000000000000000000 ) ) ;
#153 = AXIS2_PLACEMENT_3D ( 'NONE', #156, #19, #264 ) ;
#154 = DIRECTION ( 'NONE',  ( 1.000000000000000000, 0.000000000000000000, 0.000000000000000000 ) ) ;
#155 = APPLICATION_PROTOCOL_DEFINITION ( 'international standard', 'config_control_design', 1994, #184 ) ;
#156 = CARTESIAN_POINT ( 'NONE',  ( 0.000000000000000000, 0.000000000000000000, 0.000000000000000000 ) ) ;
#157 = AXIS2_PLACEMENT_3D ( 'NONE', #1, #193, #276 ) ;
#158 = PRODUCT_DEFINITION ( 'NEZNÁMÝ', '', #304, #126 ) ;
#159 = ORIENTED_EDGE ( 'NONE', *, *, #215, .F. ) ;
#160 = ORIENTED_EDGE ( 'NONE', *, *, #100, .T. ) ;
#161 = CIRCLE ( 'NONE', #222, 0.5000000000000000000 ) ;
#162 = APPROVAL_PERSON_ORGANIZATION ( #135, #89, #41 ) ;
#163 = AXIS2_PLACEMENT_3D ( 'NONE', #55, #180, #7 ) ;
#164 = EDGE_LOOP ( 'NONE', ( #23, #267 ) ) ;
#165 = DATE_AND_TIME ( #268, #64 ) ;
#166 = ORIENTED_EDGE ( 'NONE', *, *, #295, .F. ) ;
#167 = VECTOR ( 'NONE', #72, 1000.000000000000000 ) ;
#168 = DIRECTION ( 'NONE',  ( -0.000000000000000000, -0.000000000000000000, -1.000000000000000000 ) ) ;
#169 = FACE_OUTER_BOUND ( 'NONE', #91, .T. ) ;
#170 = ORIENTED_EDGE ( 'NONE', *, *, #220, .T. ) ;
#171 = EDGE_CURVE ( 'NONE', #66, #22, #20, .T. ) ;
#172 = VERTEX_POINT ( 'NONE', #31 ) ;
#173 = CIRCLE ( 'NONE', #196, 0.6999999999999999556 ) ;
#174 = CARTESIAN_POINT ( 'NONE',  ( 0.000000000000000000, 0.000000000000000000, 0.000000000000000000 ) ) ;
#175 = CYLINDRICAL_SURFACE ( 'NONE', #243, 1.250000000000000000 ) ;
#176 = DATE_TIME_ROLE ( 'creation_date' ) ;
#177 = DIRECTION ( 'NONE',  ( 0.000000000000000000, 0.000000000000000000, 1.000000000000000000 ) ) ;
#178 = PERSON_AND_ORGANIZATION ( #219, #270 ) ;
#179 = DIRECTION ( 'NONE',  ( 1.000000000000000000, 0.000000000000000000, 0.000000000000000000 ) ) ;
#180 = DIRECTION ( 'NONE',  ( 1.224646799147353207E-16, 1.000000000000000000, -0.000000000000000000 ) ) ;
#181 = DATE_AND_TIME ( #265, #228 ) ;
#182 = ORIENTED_EDGE ( 'NONE', *, *, #59, .T. ) ;
#183 = PERSON_AND_ORGANIZATION ( #219, #270 ) ;
#184 = APPLICATION_CONTEXT ( 'configuration controlled 3d designs of mechanical parts and assemblies' ) ;
#185 = EDGE_LOOP ( 'NONE', ( #114, #226 ) ) ;
#186 = EDGE_CURVE ( 'NONE', #172, #244, #112, .T. ) ;
#187 = AXIS2_PLACEMENT_3D ( 'NONE', #200, #277, #30 ) ;
#188 = VERTEX_POINT ( 'NONE', #297 ) ;
#189 = ORIENTED_EDGE ( 'NONE', *, *, #18, .F. ) ;
#190 = AXIS2_PLACEMENT_3D ( 'NONE', #127, #204, #179 ) ;
#191 = LOCAL_TIME ( 12, 31, 34.00000000000000000, #134 ) ;
#192 = VERTEX_POINT ( 'NONE', #105 ) ;
#193 = DIRECTION ( 'NONE',  ( 0.000000000000000000, 0.000000000000000000, 1.000000000000000000 ) ) ;
#194 = CIRCLE ( 'NONE', #52, 0.2000000000000000944 ) ;
#195 = ORIENTED_EDGE ( 'NONE', *, *, #45, .T. ) ;
#196 = AXIS2_PLACEMENT_3D ( 'NONE', #211, #152, #259 ) ;
#197 = CC_DESIGN_APPROVAL ( #108, ( #158 ) ) ;
#198 = EDGE_CURVE ( 'NONE', #192, #65, #16, .T. ) ;
#199 = AXIS2_PLACEMENT_3D ( 'NONE', #286, #255, #129 ) ;
#200 = CARTESIAN_POINT ( 'NONE',  ( 0.000000000000000000, 0.000000000000000000, 1.399999999999998579 ) ) ;
#201 = EDGE_LOOP ( 'NONE', ( #124, #189, #269, #214 ) ) ;
#202 = DIRECTION ( 'NONE',  ( 0.000000000000000000, 0.000000000000000000, 1.000000000000000000 ) ) ;
#203 = SECURITY_CLASSIFICATION ( '', '', #13 ) ;
#204 = DIRECTION ( 'NONE',  ( 0.000000000000000000, 0.000000000000000000, 1.000000000000000000 ) ) ;
#205 = CALENDAR_DATE ( 2022, 20, 6 ) ;
#206 = CYLINDRICAL_SURFACE ( 'NONE', #85, 0.5000000000000000000 ) ;
#207 = AXIS2_PLACEMENT_3D ( 'NONE', #97, #122, #225 ) ;
#208 = DIRECTION ( 'NONE',  ( 1.000000000000000000, 0.000000000000000000, 0.000000000000000000 ) ) ;
#209 = PERSON_AND_ORGANIZATION ( #219, #270 ) ;
#210 = CC_DESIGN_PERSON_AND_ORGANIZATION_ASSIGNMENT ( #60, #131, ( #304 ) ) ;
#211 = CARTESIAN_POINT ( 'NONE',  ( 0.000000000000000000, 0.000000000000000000, 1.199999999999999956 ) ) ;
#212 = EDGE_LOOP ( 'NONE', ( #160, #96 ) ) ;
#213 = TOROIDAL_SURFACE ( 'NONE', #187, 0.6999999999999999556, 0.2000000000000000111 ) ;
#214 = ORIENTED_EDGE ( 'NONE', *, *, #171, .T. ) ;
#215 = EDGE_CURVE ( 'NONE', #29, #229, #103, .T. ) ;
#216 = ORIENTED_EDGE ( 'NONE', *, *, #92, .T. ) ;
#217 = LOCAL_TIME ( 12, 31, 34.00000000000000000, #106 ) ;
#218 = PRODUCT_RELATED_PRODUCT_CATEGORY ( 'detail', '', ( #11 ) ) ;
#219 = PERSON ( 'NEURÈENÝ', 'NEURÈENÝ', 'NEURÈENÝ', ('NEURÈENÝ'), ('NEURÈENÝ'), ('NEURÈENÝ') ) ;
#220 = EDGE_CURVE ( 'NONE', #241, #188, #43, .T. ) ;
#221 = DIRECTION ( 'NONE',  ( 0.000000000000000000, 0.000000000000000000, 1.000000000000000000 ) ) ;
#222 = AXIS2_PLACEMENT_3D ( 'NONE', #110, #177, #208 ) ;
#223 = DIRECTION ( 'NONE',  ( 1.000000000000000000, 0.000000000000000000, 0.000000000000000000 ) ) ;
#224 = PRODUCT_DEFINITION_SHAPE ( 'NONE', 'NONE',  #158 ) ;
#225 = DIRECTION ( 'NONE',  ( -1.000000000000000000, 0.000000000000000000, 0.000000000000000000 ) ) ;
#226 = ORIENTED_EDGE ( 'NONE', *, *, #198, .T. ) ;
#227 = CIRCLE ( 'NONE', #163, 0.1999999999999999833 ) ;
#228 = LOCAL_TIME ( 12, 31, 34.00000000000000000, #82 ) ;
#229 = VERTEX_POINT ( 'NONE', #232 ) ;
#230 = EDGE_CURVE ( 'NONE', #229, #29, #173, .T. ) ;
#231 = CARTESIAN_POINT ( 'NONE',  ( 0.000000000000000000, 0.000000000000000000, 1.199999999999999956 ) ) ;
#232 = CARTESIAN_POINT ( 'NONE',  ( -0.6999999999999999556, 8.572527594031473190E-17, 1.199999999999999289 ) ) ;
#233 = DIRECTION ( 'NONE',  ( 0.000000000000000000, 0.000000000000000000, 1.000000000000000000 ) ) ;
#234 = DIRECTION ( 'NONE',  ( 1.000000000000000000, 0.000000000000000000, 0.000000000000000000 ) ) ;
#235 = FACE_OUTER_BOUND ( 'NONE', #201, .T. ) ;
#236 = PERSON_AND_ORGANIZATION_ROLE ( 'design_supplier' ) ;
#237 = ADVANCED_FACE ( 'NONE', ( #235 ), #175, .T. ) ;
#238 = CARTESIAN_POINT ( 'NONE',  ( 0.000000000000000000, 0.000000000000000000, 101.2000000000000171 ) ) ;
#239 = CALENDAR_DATE ( 2022, 20, 6 ) ;
#240 = PERSON_AND_ORGANIZATION ( #219, #270 ) ;
#241 = VERTEX_POINT ( 'NONE', #256 ) ;
#242 = PLANE ( 'NONE',  #153 ) ;
#243 = AXIS2_PLACEMENT_3D ( 'NONE', #282, #133, #53 ) ;
#244 = VERTEX_POINT ( 'NONE', #35 ) ;
#245 = ADVANCED_FACE ( 'NONE', ( #9 ), #206, .T. ) ;
#246 = ORIENTED_EDGE ( 'NONE', *, *, #220, .F. ) ;
#247 = COORDINATED_UNIVERSAL_TIME_OFFSET ( 1, 0, .AHEAD. ) ;
#248 = CC_DESIGN_PERSON_AND_ORGANIZATION_ASSIGNMENT ( #209, #302, ( #203 ) ) ;
#249 = CYLINDRICAL_SURFACE ( 'NONE', #69, 0.5000000000000000000 ) ;
#250 = CYLINDRICAL_SURFACE ( 'NONE', #207, 1.250000000000000000 ) ;
#251 = ORIENTED_EDGE ( 'NONE', *, *, #92, .F. ) ;
#252 = AXIS2_PLACEMENT_3D ( 'NONE', #49, #145, #25 ) ;
#253 = EDGE_LOOP ( 'NONE', ( #67, #143, #170, #166 ) ) ;
#254 = DIRECTION ( 'NONE',  ( -0.000000000000000000, -0.000000000000000000, -1.000000000000000000 ) ) ;
#255 = DIRECTION ( 'NONE',  ( -0.000000000000000000, -0.000000000000000000, -1.000000000000000000 ) ) ;
#256 = CARTESIAN_POINT ( 'NONE',  ( 0.5000000000000000000, 6.123233995736766036E-17, 1.399999999999998579 ) ) ;
#257 =( NAMED_UNIT ( * ) SI_UNIT ( $, .STERADIAN. ) SOLID_ANGLE_UNIT ( ) );
#258 = LOCAL_TIME ( 12, 31, 34.00000000000000000, #86 ) ;
#259 = DIRECTION ( 'NONE',  ( 1.000000000000000000, 0.000000000000000000, 0.000000000000000000 ) ) ;
#260 = CC_DESIGN_DATE_AND_TIME_ASSIGNMENT ( #283, #176, ( #158 ) ) ;
#261 = PERSON_AND_ORGANIZATION ( #219, #270 ) ;
#262 = DIRECTION ( 'NONE',  ( 1.000000000000000000, 0.000000000000000000, 0.000000000000000000 ) ) ;
#263 = PERSON_AND_ORGANIZATION_ROLE ( 'design_owner' ) ;
#264 = DIRECTION ( 'NONE',  ( 1.000000000000000000, 0.000000000000000000, -0.000000000000000000 ) ) ;
#265 = CALENDAR_DATE ( 2022, 20, 6 ) ;
#266 = EDGE_CURVE ( 'NONE', #172, #241, #81, .T. ) ;
#267 = ORIENTED_EDGE ( 'NONE', *, *, #230, .T. ) ;
#268 = CALENDAR_DATE ( 2022, 20, 6 ) ;
#269 = ORIENTED_EDGE ( 'NONE', *, *, #142, .T. ) ;
#270 = ORGANIZATION ( 'NEURÈENÝ', 'NEURÈENÝ', '' ) ;
#271 = CC_DESIGN_PERSON_AND_ORGANIZATION_ASSIGNMENT ( #15, #90, ( #158 ) ) ;
#272 = EDGE_LOOP ( 'NONE', ( #118, #139 ) ) ;
#273 = ORIENTED_EDGE ( 'NONE', *, *, #230, .F. ) ;
#274 = AXIS2_PLACEMENT_3D ( 'NONE', #83, #202, #234 ) ;
#275 = EDGE_CURVE ( 'NONE', #188, #241, #161, .T. ) ;
#276 = DIRECTION ( 'NONE',  ( 1.000000000000000000, 0.000000000000000000, -0.000000000000000000 ) ) ;
#277 = DIRECTION ( 'NONE',  ( 0.000000000000000000, 0.000000000000000000, 1.000000000000000000 ) ) ;
#278 = UNCERTAINTY_MEASURE_WITH_UNIT (LENGTH_MEASURE( 1.000000000000000082E-05 ), #80, 'distance_accuracy_value', 'NONE');
#279 = AXIS2_PLACEMENT_3D ( 'NONE', #287, #79, #262 ) ;
#280 = CC_DESIGN_APPROVAL ( #290, ( #304 ) ) ;
#281 = DIRECTION ( 'NONE',  ( 0.000000000000000000, 0.000000000000000000, 1.000000000000000000 ) ) ;
#282 = CARTESIAN_POINT ( 'NONE',  ( 0.000000000000000000, 0.000000000000000000, 1.199999999999999956 ) ) ;
#283 = DATE_AND_TIME ( #205, #217 ) ;
#284 = LINE ( 'NONE', #301, #77 ) ;
#285 = CALENDAR_DATE ( 2022, 20, 6 ) ;
#286 = CARTESIAN_POINT ( 'NONE',  ( 0.000000000000000000, 0.000000000000000000, 1.199999999999999956 ) ) ;
#287 = CARTESIAN_POINT ( 'NONE',  ( 0.000000000000000000, 0.000000000000000000, 1.399999999999998579 ) ) ;
#288 = APPLICATION_PROTOCOL_DEFINITION ( 'international standard', 'config_control_design', 1994, #151 ) ;
#289 = APPROVAL_STATUS ( 'not_yet_approved' ) ;
#290 = APPROVAL ( #147, 'NEURÈENÝ' ) ;
#291 = AXIS2_PLACEMENT_3D ( 'NONE', #174, #281, #154 ) ;
#292 = AXIS2_PLACEMENT_3D ( 'NONE', #231, #111, #130 ) ;
#293 = ORIENTED_EDGE ( 'NONE', *, *, #148, .T. ) ;
#294 = CARTESIAN_POINT ( 'NONE',  ( 0.000000000000000000, 0.000000000000000000, 101.2000000000000171 ) ) ;
#295 = EDGE_CURVE ( 'NONE', #244, #188, #284, .T. ) ;
#296 = DIRECTION ( 'NONE',  ( 0.000000000000000000, 0.000000000000000000, 1.000000000000000000 ) ) ;
#297 = CARTESIAN_POINT ( 'NONE',  ( -0.5000000000000000000, 0.000000000000000000, 1.399999999999998579 ) ) ;
#298 = ADVANCED_FACE ( 'NONE', ( #138 ), #242, .F. ) ;
#299 = DIRECTION ( 'NONE',  ( -0.000000000000000000, -0.000000000000000000, -1.000000000000000000 ) ) ;
#300 = APPROVAL_ROLE ( '' ) ;
#301 = CARTESIAN_POINT ( 'NONE',  ( -0.5000000000000000000, 0.000000000000000000, 101.2000000000000171 ) ) ;
#302 = PERSON_AND_ORGANIZATION_ROLE ( 'classification_officer' ) ;
#303 = VECTOR ( 'NONE', #254, 1000.000000000000000 ) ;
#304 = PRODUCT_DEFINITION_FORMATION_WITH_SPECIFIED_SOURCE ( 'LIBOVOLNÝ', '', #11, .NOT_KNOWN. ) ;
#305 = PLANE ( 'NONE',  #292 ) ;
#306 = ORIENTED_EDGE ( 'NONE', *, *, #142, .F. ) ;
#307 = ORIENTED_EDGE ( 'NONE', *, *, #275, .T. ) ;
ENDSEC;
END-ISO-10303-21;
