ISO-10303-21;
HEADER;
FILE_DESCRIPTION (( 'STEP AP203' ),
    '1' );
FILE_NAME ('bc3d.STEP',
    '2022-06-20T09:31:49',
    ( '' ),
    ( '' ),
    'SwSTEP 2.0',
    'SolidWorks 2019',
    '' );
FILE_SCHEMA (( 'CONFIG_CONTROL_DESIGN' ));
ENDSEC;

DATA;
#1 = CARTESIAN_POINT ( 'NONE',  ( 6.200000000000001066, 0.000000000000000000, 6.999999999999992006 ) ) ;
#2 = ORIENTED_EDGE ( 'NONE', *, *, #148, .F. ) ;
#3 = EDGE_LOOP ( 'NONE', ( #95, #135, #120, #235 ) ) ;
#4 = AXIS2_PLACEMENT_3D ( 'NONE', #97, #220, #13 ) ;
#5 = DIRECTION ( 'NONE',  ( 1.000000000000000000, 0.000000000000000000, 0.000000000000000000 ) ) ;
#6 = APPLICATION_CONTEXT ( 'configuration controlled 3d designs of mechanical parts and assemblies' ) ;
#7 = VERTEX_POINT ( 'NONE', #141 ) ;
#8 = PRODUCT_DEFINITION ( 'NEZNÁMÝ', '', #89, #230 ) ;
#9 = CARTESIAN_POINT ( 'NONE',  ( 0.000000000000000000, 0.000000000000000000, 1006.999999999999886 ) ) ;
#10 = CARTESIAN_POINT ( 'NONE',  ( -6.200000000000001066, 7.592810154713590821E-16, 6.999999999999992006 ) ) ;
#11 = APPROVAL_STATUS ( 'not_yet_approved' ) ;
#12 = EDGE_CURVE ( 'NONE', #7, #279, #88, .T. ) ;
#13 = DIRECTION ( 'NONE',  ( -1.000000000000000000, 0.000000000000000000, 0.000000000000000000 ) ) ;
#14 = CALENDAR_DATE ( 2022, 20, 6 ) ;
#15 = CARTESIAN_POINT ( 'NONE',  ( 6.000000000000000888, 7.347880794884120722E-16, 1006.999999999999886 ) ) ;
#16 = CARTESIAN_POINT ( 'NONE',  ( 0.000000000000000000, 0.000000000000000000, 7.000000000000000000 ) ) ;
#17 = AXIS2_PLACEMENT_3D ( 'NONE', #86, #182, #64 ) ;
#18 = MANIFOLD_SOLID_BREP ( 'Zaoblit1', #147 ) ;
#19 = CYLINDRICAL_SURFACE ( 'NONE', #236, 6.000000000000000888 ) ;
#20 = EDGE_CURVE ( 'NONE', #71, #136, #30, .T. ) ;
#21 =( NAMED_UNIT ( * ) PLANE_ANGLE_UNIT ( ) SI_UNIT ( $, .RADIAN. ) );
#22 = FACE_OUTER_BOUND ( 'NONE', #3, .T. ) ;
#23 = VECTOR ( 'NONE', #261, 1000.000000000000000 ) ;
#24 = CARTESIAN_POINT ( 'NONE',  ( 0.000000000000000000, 0.000000000000000000, 7.000000000000000000 ) ) ;
#25 = AXIS2_PLACEMENT_3D ( 'NONE', #16, #126, #197 ) ;
#26 = CC_DESIGN_APPROVAL ( #121, ( #8 ) ) ;
#27 = VERTEX_POINT ( 'NONE', #184 ) ;
#28 = DIRECTION ( 'NONE',  ( -1.000000000000000000, 1.224646799147353454E-16, 0.000000000000000000 ) ) ;
#29 = CARTESIAN_POINT ( 'NONE',  ( 0.000000000000000000, 0.000000000000000000, 7.000000000000000000 ) ) ;
#30 = CIRCLE ( 'NONE', #288, 6.200000000000001066 ) ;
#31 = CC_DESIGN_APPROVAL ( #90, ( #89 ) ) ;
#32 = ORIENTED_EDGE ( 'NONE', *, *, #61, .T. ) ;
#33 = FACE_OUTER_BOUND ( 'NONE', #154, .T. ) ;
#34 = DIRECTION ( 'NONE',  ( 1.000000000000000000, 0.000000000000000000, 0.000000000000000000 ) ) ;
#35 = PERSON_AND_ORGANIZATION_ROLE ( 'classification_officer' ) ;
#36 = VECTOR ( 'NONE', #56, 1000.000000000000000 ) ;
#37 = CARTESIAN_POINT ( 'NONE',  ( 0.000000000000000000, 0.000000000000000000, 7.199999999999984190 ) ) ;
#38 = APPROVAL_ROLE ( '' ) ;
#39 = FACE_OUTER_BOUND ( 'NONE', #231, .T. ) ;
#40 = DIRECTION ( 'NONE',  ( 1.000000000000000000, 0.000000000000000000, 0.000000000000000000 ) ) ;
#41 =( NAMED_UNIT ( * ) SI_UNIT ( $, .STERADIAN. ) SOLID_ANGLE_UNIT ( ) );
#42 = EDGE_CURVE ( 'NONE', #44, #136, #180, .T. ) ;
#43 = PERSON_AND_ORGANIZATION_ROLE ( 'design_owner' ) ;
#44 = VERTEX_POINT ( 'NONE', #116 ) ;
#45 = FACE_OUTER_BOUND ( 'NONE', #93, .T. ) ;
#46 = TOROIDAL_SURFACE ( 'NONE', #65, 6.200000000000001066, 0.2000000000000000111 ) ;
#47 = UNCERTAINTY_MEASURE_WITH_UNIT (LENGTH_MEASURE( 1.000000000000000082E-05 ), #130, 'distance_accuracy_value', 'NONE');
#48 = DIRECTION ( 'NONE',  ( -0.000000000000000000, -0.000000000000000000, -1.000000000000000000 ) ) ;
#49 = LOCAL_TIME ( 11, 31, 49.00000000000000000, #225 ) ;
#50 = CARTESIAN_POINT ( 'NONE',  ( -6.200000000000001066, 7.592810154713590821E-16, 7.199999999999984190 ) ) ;
#51 = ORIENTED_EDGE ( 'NONE', *, *, #20, .F. ) ;
#52 = ORIENTED_EDGE ( 'NONE', *, *, #177, .F. ) ;
#53 =( GEOMETRIC_REPRESENTATION_CONTEXT ( 3 ) GLOBAL_UNCERTAINTY_ASSIGNED_CONTEXT ( ( #47 ) ) GLOBAL_UNIT_ASSIGNED_CONTEXT ( ( #130, #21, #41 ) ) REPRESENTATION_CONTEXT ( 'NONE', 'WORKASPACE' ) );
#54 = ORIENTED_EDGE ( 'NONE', *, *, #294, .T. ) ;
#55 = DIRECTION ( 'NONE',  ( 1.000000000000000000, 0.000000000000000000, 0.000000000000000000 ) ) ;
#56 = DIRECTION ( 'NONE',  ( -0.000000000000000000, -0.000000000000000000, -1.000000000000000000 ) ) ;
#57 = COORDINATED_UNIVERSAL_TIME_OFFSET ( 1, 0, .AHEAD. ) ;
#58 = DIRECTION ( 'NONE',  ( 0.000000000000000000, 0.000000000000000000, 1.000000000000000000 ) ) ;
#59 = DIRECTION ( 'NONE',  ( 0.000000000000000000, -1.000000000000000000, 0.000000000000000000 ) ) ;
#60 = COORDINATED_UNIVERSAL_TIME_OFFSET ( 1, 0, .AHEAD. ) ;
#61 = EDGE_CURVE ( 'NONE', #279, #160, #211, .T. ) ;
#62 = CARTESIAN_POINT ( 'NONE',  ( 0.000000000000000000, 0.000000000000000000, 7.199999999999984190 ) ) ;
#63 = APPROVAL_STATUS ( 'not_yet_approved' ) ;
#64 = DIRECTION ( 'NONE',  ( 1.000000000000000000, 0.000000000000000000, -0.000000000000000000 ) ) ;
#65 = AXIS2_PLACEMENT_3D ( 'NONE', #62, #176, #290 ) ;
#66 = VERTEX_POINT ( 'NONE', #139 ) ;
#67 = ADVANCED_FACE ( 'NONE', ( #237, #215 ), #112, .T. ) ;
#68 = DIRECTION ( 'NONE',  ( -0.000000000000000000, -0.000000000000000000, -1.000000000000000000 ) ) ;
#69 = ORIENTED_EDGE ( 'NONE', *, *, #42, .T. ) ;
#70 = AXIS2_PLACEMENT_3D ( 'NONE', #219, #200, #55 ) ;
#71 = VERTEX_POINT ( 'NONE', #1 ) ;
#72 = EDGE_CURVE ( 'NONE', #136, #71, #257, .T. ) ;
#73 = ORIENTED_EDGE ( 'NONE', *, *, #12, .F. ) ;
#74 = EDGE_LOOP ( 'NONE', ( #213, #178 ) ) ;
#75 = CARTESIAN_POINT ( 'NONE',  ( -9.000000000000000000, 0.000000000000000000, 7.000000000000000000 ) ) ;
#76 = PRODUCT ( 'bc3d', 'bc3d', '', ( #170 ) ) ;
#77 = DIRECTION ( 'NONE',  ( 0.000000000000000000, 0.000000000000000000, 1.000000000000000000 ) ) ;
#78 = CYLINDRICAL_SURFACE ( 'NONE', #304, 6.000000000000000888 ) ;
#79 = APPROVAL_DATE_TIME ( #226, #137 ) ;
#80 = AXIS2_PLACEMENT_3D ( 'NONE', #291, #272, #122 ) ;
#81 = DIRECTION ( 'NONE',  ( 1.000000000000000000, 0.000000000000000000, 0.000000000000000000 ) ) ;
#82 = DATE_AND_TIME ( #245, #191 ) ;
#83 = DIRECTION ( 'NONE',  ( 1.000000000000000000, 0.000000000000000000, 0.000000000000000000 ) ) ;
#84 = ADVANCED_BREP_SHAPE_REPRESENTATION ( 'bc3d', ( #18, #224 ), #53 ) ;
#85 = PERSON_AND_ORGANIZATION ( #278, #262 ) ;
#86 = CARTESIAN_POINT ( 'NONE',  ( 0.000000000000000000, 0.000000000000000000, 0.000000000000000000 ) ) ;
#87 = DIRECTION ( 'NONE',  ( 1.000000000000000000, 0.000000000000000000, 0.000000000000000000 ) ) ;
#88 = CIRCLE ( 'NONE', #275, 9.000000000000000000 ) ;
#89 = PRODUCT_DEFINITION_FORMATION_WITH_SPECIFIED_SOURCE ( 'LIBOVOLNÝ', '', #76, .NOT_KNOWN. ) ;
#90 = APPROVAL ( #63, 'NEURÈENÝ' ) ;
#91 = CARTESIAN_POINT ( 'NONE',  ( 0.000000000000000000, 0.000000000000000000, 7.000000000000000000 ) ) ;
#92 = ORIENTED_EDGE ( 'NONE', *, *, #246, .T. ) ;
#93 = EDGE_LOOP ( 'NONE', ( #2, #284 ) ) ;
#94 = VECTOR ( 'NONE', #264, 1000.000000000000000 ) ;
#95 = ORIENTED_EDGE ( 'NONE', *, *, #164, .F. ) ;
#96 = EDGE_LOOP ( 'NONE', ( #263, #32, #159, #285 ) ) ;
#97 = CARTESIAN_POINT ( 'NONE',  ( 0.000000000000000000, 0.000000000000000000, 7.000000000000000000 ) ) ;
#98 = DIRECTION ( 'NONE',  ( -1.000000000000000000, 0.000000000000000000, 0.000000000000000000 ) ) ;
#99 = APPROVAL_ROLE ( '' ) ;
#100 = DATE_AND_TIME ( #14, #113 ) ;
#101 = FACE_OUTER_BOUND ( 'NONE', #96, .T. ) ;
#102 = EDGE_CURVE ( 'NONE', #44, #260, #242, .T. ) ;
#103 = CIRCLE ( 'NONE', #140, 6.000000000000000888 ) ;
#104 = LINE ( 'NONE', #75, #307 ) ;
#105 = APPROVAL_ROLE ( '' ) ;
#106 = PRODUCT_DEFINITION_SHAPE ( 'NONE', 'NONE',  #8 ) ;
#107 = ORIENTED_EDGE ( 'NONE', *, *, #294, .F. ) ;
#108 = DIRECTION ( 'NONE',  ( 0.000000000000000000, 0.000000000000000000, 1.000000000000000000 ) ) ;
#109 = CARTESIAN_POINT ( 'NONE',  ( 0.000000000000000000, 0.000000000000000000, 1006.999999999999886 ) ) ;
#110 = CC_DESIGN_PERSON_AND_ORGANIZATION_ASSIGNMENT ( #266, #43, ( #76 ) ) ;
#111 = AXIS2_PLACEMENT_3D ( 'NONE', #50, #234, #28 ) ;
#112 = PLANE ( 'NONE',  #296 ) ;
#113 = LOCAL_TIME ( 11, 31, 49.00000000000000000, #125 ) ;
#114 = EDGE_LOOP ( 'NONE', ( #185, #73, #158, #205 ) ) ;
#115 = EDGE_CURVE ( 'NONE', #7, #66, #104, .T. ) ;
#116 = CARTESIAN_POINT ( 'NONE',  ( -6.000000000000000888, 0.000000000000000000, 7.199999999999984190 ) ) ;
#117 = ORIENTED_EDGE ( 'NONE', *, *, #72, .T. ) ;
#118 = CIRCLE ( 'NONE', #157, 0.1999999999999996503 ) ;
#119 = CC_DESIGN_SECURITY_CLASSIFICATION ( #181, ( #89 ) ) ;
#120 = ORIENTED_EDGE ( 'NONE', *, *, #177, .T. ) ;
#121 = APPROVAL ( #179, 'NEURÈENÝ' ) ;
#122 = DIRECTION ( 'NONE',  ( -1.000000000000000000, 0.000000000000000000, 0.000000000000000000 ) ) ;
#123 = AXIS2_PLACEMENT_3D ( 'NONE', #91, #48, #217 ) ;
#124 = CARTESIAN_POINT ( 'NONE',  ( 9.000000000000000000, 1.102182119232617714E-15, 0.000000000000000000 ) ) ;
#125 = COORDINATED_UNIVERSAL_TIME_OFFSET ( 1, 0, .AHEAD. ) ;
#126 = DIRECTION ( 'NONE',  ( 0.000000000000000000, 0.000000000000000000, 1.000000000000000000 ) ) ;
#127 = PERSON_AND_ORGANIZATION ( #278, #262 ) ;
#128 = DIRECTION ( 'NONE',  ( 0.000000000000000000, 0.000000000000000000, -1.000000000000000000 ) ) ;
#129 = PRODUCT_RELATED_PRODUCT_CATEGORY ( 'detail', '', ( #76 ) ) ;
#130 =( LENGTH_UNIT ( ) NAMED_UNIT ( * ) SI_UNIT ( .MILLI., .METRE. ) );
#131 = CALENDAR_DATE ( 2022, 20, 6 ) ;
#132 = DIRECTION ( 'NONE',  ( 0.000000000000000000, 0.000000000000000000, 1.000000000000000000 ) ) ;
#133 = AXIS2_PLACEMENT_3D ( 'NONE', #37, #58, #40 ) ;
#134 = ADVANCED_FACE ( 'NONE', ( #101 ), #265, .T. ) ;
#135 = ORIENTED_EDGE ( 'NONE', *, *, #214, .F. ) ;
#136 = VERTEX_POINT ( 'NONE', #10 ) ;
#137 = APPROVAL ( #11, 'NEURÈENÝ' ) ;
#138 = EDGE_LOOP ( 'NONE', ( #183, #117 ) ) ;
#139 = CARTESIAN_POINT ( 'NONE',  ( -9.000000000000000000, 0.000000000000000000, 0.000000000000000000 ) ) ;
#140 = AXIS2_PLACEMENT_3D ( 'NONE', #251, #132, #153 ) ;
#141 = CARTESIAN_POINT ( 'NONE',  ( -9.000000000000000000, 0.000000000000000000, 7.000000000000000000 ) ) ;
#142 = CC_DESIGN_DATE_AND_TIME_ASSIGNMENT ( #100, #151, ( #8 ) ) ;
#143 = CARTESIAN_POINT ( 'NONE',  ( 0.000000000000000000, 0.000000000000000000, 0.000000000000000000 ) ) ;
#144 = DATE_TIME_ROLE ( 'classification_date' ) ;
#145 = DIRECTION ( 'NONE',  ( -0.000000000000000000, -0.000000000000000000, -1.000000000000000000 ) ) ;
#146 = PERSON_AND_ORGANIZATION ( #278, #262 ) ;
#147 = CLOSED_SHELL ( 'NONE', ( #223, #155, #134, #156, #67, #302, #259, #204, #201 ) ) ;
#148 = EDGE_CURVE ( 'NONE', #66, #160, #268, .T. ) ;
#149 = DIRECTION ( 'NONE',  ( 0.000000000000000000, 0.000000000000000000, 1.000000000000000000 ) ) ;
#150 = DIRECTION ( 'NONE',  ( 0.000000000000000000, 0.000000000000000000, 1.000000000000000000 ) ) ;
#151 = DATE_TIME_ROLE ( 'creation_date' ) ;
#152 = AXIS2_PLACEMENT_3D ( 'NONE', #247, #244, #34 ) ;
#153 = DIRECTION ( 'NONE',  ( 1.000000000000000000, 0.000000000000000000, 0.000000000000000000 ) ) ;
#154 = EDGE_LOOP ( 'NONE', ( #188, #163, #54, #52 ) ) ;
#155 = ADVANCED_FACE ( 'NONE', ( #33 ), #78, .T. ) ;
#156 = ADVANCED_FACE ( 'NONE', ( #192 ), #168, .T. ) ;
#157 = AXIS2_PLACEMENT_3D ( 'NONE', #174, #59, #128 ) ;
#158 = ORIENTED_EDGE ( 'NONE', *, *, #115, .T. ) ;
#159 = ORIENTED_EDGE ( 'NONE', *, *, #232, .T. ) ;
#160 = VERTEX_POINT ( 'NONE', #124 ) ;
#161 = CC_DESIGN_APPROVAL ( #137, ( #181 ) ) ;
#162 = EDGE_LOOP ( 'NONE', ( #210, #107, #92, #233 ) ) ;
#163 = ORIENTED_EDGE ( 'NONE', *, *, #164, .T. ) ;
#164 = EDGE_CURVE ( 'NONE', #186, #260, #270, .T. ) ;
#165 = EDGE_LOOP ( 'NONE', ( #252, #306 ) ) ;
#166 = AXIS2_PLACEMENT_3D ( 'NONE', #293, #149, #189 ) ;
#167 = CC_DESIGN_PERSON_AND_ORGANIZATION_ASSIGNMENT ( #250, #35, ( #181 ) ) ;
#168 = CYLINDRICAL_SURFACE ( 'NONE', #4, 9.000000000000000000 ) ;
#169 = LINE ( 'NONE', #241, #36 ) ;
#170 = MECHANICAL_CONTEXT ( 'NONE', #6, 'mechanical' ) ;
#171 = DIRECTION ( 'NONE',  ( 1.000000000000000000, 0.000000000000000000, 0.000000000000000000 ) ) ;
#172 = APPLICATION_PROTOCOL_DEFINITION ( 'international standard', 'config_control_design', 1994, #281 ) ;
#173 = CIRCLE ( 'NONE', #25, 9.000000000000000000 ) ;
#174 = CARTESIAN_POINT ( 'NONE',  ( 6.200000000000001066, 0.000000000000000000, 7.199999999999984190 ) ) ;
#175 = APPROVAL_DATE_TIME ( #82, #90 ) ;
#176 = DIRECTION ( 'NONE',  ( 0.000000000000000000, 0.000000000000000000, 1.000000000000000000 ) ) ;
#177 = EDGE_CURVE ( 'NONE', #27, #44, #169, .T. ) ;
#178 = ORIENTED_EDGE ( 'NONE', *, *, #227, .T. ) ;
#179 = APPROVAL_STATUS ( 'not_yet_approved' ) ;
#180 = CIRCLE ( 'NONE', #111, 0.1999999999999996503 ) ;
#181 = SECURITY_CLASSIFICATION ( '', '', #221 ) ;
#182 = DIRECTION ( 'NONE',  ( 0.000000000000000000, 0.000000000000000000, 1.000000000000000000 ) ) ;
#183 = ORIENTED_EDGE ( 'NONE', *, *, #20, .T. ) ;
#184 = CARTESIAN_POINT ( 'NONE',  ( -6.000000000000000888, 0.000000000000000000, 1006.999999999999886 ) ) ;
#185 = ORIENTED_EDGE ( 'NONE', *, *, #61, .F. ) ;
#186 = VERTEX_POINT ( 'NONE', #239 ) ;
#187 = CARTESIAN_POINT ( 'NONE',  ( 9.000000000000000000, 1.102182119232617714E-15, 7.000000000000000000 ) ) ;
#188 = ORIENTED_EDGE ( 'NONE', *, *, #254, .F. ) ;
#189 = DIRECTION ( 'NONE',  ( 1.000000000000000000, 0.000000000000000000, -0.000000000000000000 ) ) ;
#190 = CIRCLE ( 'NONE', #277, 6.000000000000000888 ) ;
#191 = LOCAL_TIME ( 11, 31, 49.00000000000000000, #57 ) ;
#192 = FACE_OUTER_BOUND ( 'NONE', #114, .T. ) ;
#193 = PERSON_AND_ORGANIZATION_ROLE ( 'creator' ) ;
#194 = FACE_OUTER_BOUND ( 'NONE', #165, .T. ) ;
#195 = CC_DESIGN_DATE_AND_TIME_ASSIGNMENT ( #199, #144, ( #181 ) ) ;
#196 = COORDINATED_UNIVERSAL_TIME_OFFSET ( 1, 0, .AHEAD. ) ;
#197 = DIRECTION ( 'NONE',  ( 1.000000000000000000, 0.000000000000000000, 0.000000000000000000 ) ) ;
#198 = CIRCLE ( 'NONE', #152, 6.000000000000000888 ) ;
#199 = DATE_AND_TIME ( #131, #202 ) ;
#200 = DIRECTION ( 'NONE',  ( 0.000000000000000000, 0.000000000000000000, 1.000000000000000000 ) ) ;
#201 = ADVANCED_FACE ( 'NONE', ( #267 ), #283, .F. ) ;
#202 = LOCAL_TIME ( 11, 31, 49.00000000000000000, #60 ) ;
#203 = PLANE ( 'NONE',  #17 ) ;
#204 = ADVANCED_FACE ( 'NONE', ( #194 ), #298, .T. ) ;
#205 = ORIENTED_EDGE ( 'NONE', *, *, #148, .T. ) ;
#206 = APPROVAL_PERSON_ORGANIZATION ( #127, #121, #38 ) ;
#207 = APPROVAL_PERSON_ORGANIZATION ( #240, #90, #105 ) ;
#208 = DIRECTION ( 'NONE',  ( 0.000000000000000000, 0.000000000000000000, 1.000000000000000000 ) ) ;
#209 = CC_DESIGN_PERSON_AND_ORGANIZATION_ASSIGNMENT ( #85, #273, ( #8 ) ) ;
#210 = ORIENTED_EDGE ( 'NONE', *, *, #42, .F. ) ;
#211 = LINE ( 'NONE', #187, #23 ) ;
#212 = CIRCLE ( 'NONE', #253, 9.000000000000000000 ) ;
#213 = ORIENTED_EDGE ( 'NONE', *, *, #12, .T. ) ;
#214 = EDGE_CURVE ( 'NONE', #27, #186, #198, .T. ) ;
#215 = FACE_OUTER_BOUND ( 'NONE', #74, .T. ) ;
#216 = DIRECTION ( 'NONE',  ( 0.000000000000000000, 0.000000000000000000, 1.000000000000000000 ) ) ;
#217 = DIRECTION ( 'NONE',  ( 1.000000000000000000, 0.000000000000000000, 0.000000000000000000 ) ) ;
#218 = PERSON_AND_ORGANIZATION ( #278, #262 ) ;
#219 = CARTESIAN_POINT ( 'NONE',  ( 0.000000000000000000, 0.000000000000000000, 7.199999999999984190 ) ) ;
#220 = DIRECTION ( 'NONE',  ( -0.000000000000000000, -0.000000000000000000, -1.000000000000000000 ) ) ;
#221 = SECURITY_CLASSIFICATION_LEVEL ( 'unclassified' ) ;
#222 = DIRECTION ( 'NONE',  ( -0.000000000000000000, -0.000000000000000000, -1.000000000000000000 ) ) ;
#223 = ADVANCED_FACE ( 'NONE', ( #39 ), #46, .F. ) ;
#224 = AXIS2_PLACEMENT_3D ( 'NONE', #301, #108, #87 ) ;
#225 = COORDINATED_UNIVERSAL_TIME_OFFSET ( 1, 0, .AHEAD. ) ;
#226 = DATE_AND_TIME ( #292, #289 ) ;
#227 = EDGE_CURVE ( 'NONE', #279, #7, #173, .T. ) ;
#228 = DIRECTION ( 'NONE',  ( -1.000000000000000000, 0.000000000000000000, 0.000000000000000000 ) ) ;
#229 = AXIS2_PLACEMENT_3D ( 'NONE', #143, #77, #171 ) ;
#230 = DESIGN_CONTEXT ( 'detailed design', #281, 'design' ) ;
#231 = EDGE_LOOP ( 'NONE', ( #286, #69, #51, #255 ) ) ;
#232 = EDGE_CURVE ( 'NONE', #160, #66, #212, .T. ) ;
#233 = ORIENTED_EDGE ( 'NONE', *, *, #72, .F. ) ;
#234 = DIRECTION ( 'NONE',  ( 1.224646799147353207E-16, 1.000000000000000000, -0.000000000000000000 ) ) ;
#235 = ORIENTED_EDGE ( 'NONE', *, *, #102, .T. ) ;
#236 = AXIS2_PLACEMENT_3D ( 'NONE', #109, #248, #228 ) ;
#237 = FACE_BOUND ( 'NONE', #138, .T. ) ;
#238 = CARTESIAN_POINT ( 'NONE',  ( 0.000000000000000000, 0.000000000000000000, 1006.999999999999886 ) ) ;
#239 = CARTESIAN_POINT ( 'NONE',  ( 6.000000000000000888, 7.347880794884120722E-16, 1006.999999999999886 ) ) ;
#240 = PERSON_AND_ORGANIZATION ( #278, #262 ) ;
#241 = CARTESIAN_POINT ( 'NONE',  ( -6.000000000000000888, 0.000000000000000000, 1006.999999999999886 ) ) ;
#242 = CIRCLE ( 'NONE', #70, 6.000000000000000888 ) ;
#243 = SHAPE_DEFINITION_REPRESENTATION ( #106, #84 ) ;
#244 = DIRECTION ( 'NONE',  ( 0.000000000000000000, 0.000000000000000000, 1.000000000000000000 ) ) ;
#245 = CALENDAR_DATE ( 2022, 20, 6 ) ;
#246 = EDGE_CURVE ( 'NONE', #260, #71, #118, .T. ) ;
#247 = CARTESIAN_POINT ( 'NONE',  ( 0.000000000000000000, 0.000000000000000000, 1006.999999999999886 ) ) ;
#248 = DIRECTION ( 'NONE',  ( -0.000000000000000000, -0.000000000000000000, -1.000000000000000000 ) ) ;
#249 = CC_DESIGN_PERSON_AND_ORGANIZATION_ASSIGNMENT ( #146, #271, ( #89 ) ) ;
#250 = PERSON_AND_ORGANIZATION ( #278, #262 ) ;
#251 = CARTESIAN_POINT ( 'NONE',  ( 0.000000000000000000, 0.000000000000000000, 7.199999999999984190 ) ) ;
#252 = ORIENTED_EDGE ( 'NONE', *, *, #214, .T. ) ;
#253 = AXIS2_PLACEMENT_3D ( 'NONE', #295, #216, #81 ) ;
#254 = EDGE_CURVE ( 'NONE', #186, #27, #190, .T. ) ;
#255 = ORIENTED_EDGE ( 'NONE', *, *, #246, .F. ) ;
#256 = CARTESIAN_POINT ( 'NONE',  ( 0.000000000000000000, 0.000000000000000000, 7.000000000000000000 ) ) ;
#257 = CIRCLE ( 'NONE', #123, 6.200000000000001066 ) ;
#258 = DIRECTION ( 'NONE',  ( 1.000000000000000000, 0.000000000000000000, 0.000000000000000000 ) ) ;
#259 = ADVANCED_FACE ( 'NONE', ( #22 ), #19, .T. ) ;
#260 = VERTEX_POINT ( 'NONE', #300 ) ;
#261 = DIRECTION ( 'NONE',  ( -0.000000000000000000, -0.000000000000000000, -1.000000000000000000 ) ) ;
#262 = ORGANIZATION ( 'NEURÈENÝ', 'NEURÈENÝ', '' ) ;
#263 = ORIENTED_EDGE ( 'NONE', *, *, #227, .F. ) ;
#264 = DIRECTION ( 'NONE',  ( -0.000000000000000000, -0.000000000000000000, -1.000000000000000000 ) ) ;
#265 = CYLINDRICAL_SURFACE ( 'NONE', #80, 9.000000000000000000 ) ;
#266 = PERSON_AND_ORGANIZATION ( #278, #262 ) ;
#267 = FACE_OUTER_BOUND ( 'NONE', #162, .T. ) ;
#268 = CIRCLE ( 'NONE', #229, 9.000000000000000000 ) ;
#269 = CALENDAR_DATE ( 2022, 20, 6 ) ;
#270 = LINE ( 'NONE', #15, #94 ) ;
#271 = PERSON_AND_ORGANIZATION_ROLE ( 'design_supplier' ) ;
#272 = DIRECTION ( 'NONE',  ( -0.000000000000000000, -0.000000000000000000, -1.000000000000000000 ) ) ;
#273 = PERSON_AND_ORGANIZATION_ROLE ( 'creator' ) ;
#274 = APPLICATION_PROTOCOL_DEFINITION ( 'international standard', 'config_control_design', 1994, #6 ) ;
#275 = AXIS2_PLACEMENT_3D ( 'NONE', #29, #282, #258 ) ;
#276 = PERSON_AND_ORGANIZATION ( #278, #262 ) ;
#277 = AXIS2_PLACEMENT_3D ( 'NONE', #9, #150, #83 ) ;
#278 = PERSON ( 'NEURÈENÝ', 'NEURÈENÝ', 'NEURÈENÝ', ('NEURÈENÝ'), ('NEURÈENÝ'), ('NEURÈENÝ') ) ;
#279 = VERTEX_POINT ( 'NONE', #303 ) ;
#280 = DIRECTION ( 'NONE',  ( 1.000000000000000000, 0.000000000000000000, -0.000000000000000000 ) ) ;
#281 = APPLICATION_CONTEXT ( 'configuration controlled 3d designs of mechanical parts and assemblies' ) ;
#282 = DIRECTION ( 'NONE',  ( 0.000000000000000000, 0.000000000000000000, 1.000000000000000000 ) ) ;
#283 = TOROIDAL_SURFACE ( 'NONE', #133, 6.200000000000001066, 0.2000000000000000111 ) ;
#284 = ORIENTED_EDGE ( 'NONE', *, *, #232, .F. ) ;
#285 = ORIENTED_EDGE ( 'NONE', *, *, #115, .F. ) ;
#286 = ORIENTED_EDGE ( 'NONE', *, *, #102, .F. ) ;
#287 = CC_DESIGN_PERSON_AND_ORGANIZATION_ASSIGNMENT ( #276, #193, ( #89 ) ) ;
#288 = AXIS2_PLACEMENT_3D ( 'NONE', #24, #68, #5 ) ;
#289 = LOCAL_TIME ( 11, 31, 49.00000000000000000, #196 ) ;
#290 = DIRECTION ( 'NONE',  ( 1.000000000000000000, 0.000000000000000000, 0.000000000000000000 ) ) ;
#291 = CARTESIAN_POINT ( 'NONE',  ( 0.000000000000000000, 0.000000000000000000, 7.000000000000000000 ) ) ;
#292 = CALENDAR_DATE ( 2022, 20, 6 ) ;
#293 = CARTESIAN_POINT ( 'NONE',  ( 0.000000000000000000, 0.000000000000000000, 1006.999999999999886 ) ) ;
#294 = EDGE_CURVE ( 'NONE', #260, #44, #103, .T. ) ;
#295 = CARTESIAN_POINT ( 'NONE',  ( 0.000000000000000000, 0.000000000000000000, 0.000000000000000000 ) ) ;
#296 = AXIS2_PLACEMENT_3D ( 'NONE', #256, #208, #280 ) ;
#297 = DATE_AND_TIME ( #269, #49 ) ;
#298 = PLANE ( 'NONE',  #166 ) ;
#299 = APPROVAL_DATE_TIME ( #297, #121 ) ;
#300 = CARTESIAN_POINT ( 'NONE',  ( 6.000000000000000888, 7.347880794884120722E-16, 7.199999999999984190 ) ) ;
#301 = CARTESIAN_POINT ( 'NONE',  ( 0.000000000000000000, 0.000000000000000000, 0.000000000000000000 ) ) ;
#302 = ADVANCED_FACE ( 'NONE', ( #45 ), #203, .F. ) ;
#303 = CARTESIAN_POINT ( 'NONE',  ( 9.000000000000000000, 1.102182119232617714E-15, 7.000000000000000000 ) ) ;
#304 = AXIS2_PLACEMENT_3D ( 'NONE', #238, #222, #98 ) ;
#305 = APPROVAL_PERSON_ORGANIZATION ( #218, #137, #99 ) ;
#306 = ORIENTED_EDGE ( 'NONE', *, *, #254, .T. ) ;
#307 = VECTOR ( 'NONE', #145, 1000.000000000000000 ) ;
ENDSEC;
END-ISO-10303-21;
