ISO-10303-21;
HEADER;
FILE_DESCRIPTION (( 'STEP AP203' ),
    '1' );
FILE_NAME ('4440.STEP',
    '2022-06-20T10:28:53',
    ( '' ),
    ( '' ),
    'SwSTEP 2.0',
    'SolidWorks 2019',
    '' );
FILE_SCHEMA (( 'CONFIG_CONTROL_DESIGN' ));
ENDSEC;

DATA;
#1 = CARTESIAN_POINT ( 'NONE',  ( 0.5000000000000000000, 6.123233995736766036E-17, 1.399999999999998579 ) ) ;
#2 = ORIENTED_EDGE ( 'NONE', *, *, #278, .F. ) ;
#3 = EDGE_CURVE ( 'NONE', #155, #95, #27, .T. ) ;
#4 = ADVANCED_FACE ( 'NONE', ( #230, #198 ), #105, .T. ) ;
#5 = CYLINDRICAL_SURFACE ( 'NONE', #182, 1.250000000000000000 ) ;
#6 = DIRECTION ( 'NONE',  ( 1.000000000000000000, 0.000000000000000000, -0.000000000000000000 ) ) ;
#7 = EDGE_LOOP ( 'NONE', ( #29, #137 ) ) ;
#8 = APPROVAL ( #284, 'NEURÈENÝ' ) ;
#9 = CARTESIAN_POINT ( 'NONE',  ( 0.000000000000000000, 0.000000000000000000, 0.000000000000000000 ) ) ;
#10 = DIRECTION ( 'NONE',  ( -0.000000000000000000, -0.000000000000000000, -1.000000000000000000 ) ) ;
#11 = EDGE_CURVE ( 'NONE', #155, #89, #50, .T. ) ;
#12 = DIRECTION ( 'NONE',  ( 0.000000000000000000, 0.000000000000000000, 1.000000000000000000 ) ) ;
#13 = CARTESIAN_POINT ( 'NONE',  ( 0.000000000000000000, 0.000000000000000000, 1.199999999999999956 ) ) ;
#14 = VERTEX_POINT ( 'NONE', #305 ) ;
#15 = PERSON_AND_ORGANIZATION ( #213, #186 ) ;
#16 = EDGE_CURVE ( 'NONE', #149, #267, #234, .T. ) ;
#17 = CIRCLE ( 'NONE', #85, 1.250000000000000000 ) ;
#18 = CALENDAR_DATE ( 2022, 20, 6 ) ;
#19 = DIRECTION ( 'NONE',  ( -0.000000000000000000, -0.000000000000000000, -1.000000000000000000 ) ) ;
#20 = APPROVAL_DATE_TIME ( #231, #118 ) ;
#21 = MANIFOLD_SOLID_BREP ( 'Zaoblit1', #43 ) ;
#22 = DIRECTION ( 'NONE',  ( 1.000000000000000000, 0.000000000000000000, -0.000000000000000000 ) ) ;
#23 = APPROVAL_ROLE ( '' ) ;
#24 = DIRECTION ( 'NONE',  ( 1.000000000000000000, 0.000000000000000000, 0.000000000000000000 ) ) ;
#25 = LOCAL_TIME ( 12, 28, 53.00000000000000000, #101 ) ;
#26 = ORIENTED_EDGE ( 'NONE', *, *, #81, .T. ) ;
#27 = CIRCLE ( 'NONE', #207, 0.2000000000000000944 ) ;
#28 = VERTEX_POINT ( 'NONE', #254 ) ;
#29 = ORIENTED_EDGE ( 'NONE', *, *, #249, .T. ) ;
#30 = LOCAL_TIME ( 12, 28, 53.00000000000000000, #281 ) ;
#31 = CC_DESIGN_DATE_AND_TIME_ASSIGNMENT ( #253, #84, ( #227 ) ) ;
#32 = ORIENTED_EDGE ( 'NONE', *, *, #16, .F. ) ;
#33 = DIRECTION ( 'NONE',  ( -1.000000000000000000, 0.000000000000000000, 0.000000000000000000 ) ) ;
#34 = ORIENTED_EDGE ( 'NONE', *, *, #11, .T. ) ;
#35 = CARTESIAN_POINT ( 'NONE',  ( 0.000000000000000000, 0.000000000000000000, 0.000000000000000000 ) ) ;
#36 = TOROIDAL_SURFACE ( 'NONE', #200, 0.6999999999999999556, 0.2000000000000000111 ) ;
#37 = DIRECTION ( 'NONE',  ( -0.000000000000000000, -0.000000000000000000, -1.000000000000000000 ) ) ;
#38 = ADVANCED_BREP_SHAPE_REPRESENTATION ( '4440', ( #21, #225 ), #204 ) ;
#39 = APPROVAL_DATE_TIME ( #41, #220 ) ;
#40 = DIRECTION ( 'NONE',  ( 0.000000000000000000, 0.000000000000000000, 1.000000000000000000 ) ) ;
#41 = DATE_AND_TIME ( #125, #244 ) ;
#42 = ADVANCED_FACE ( 'NONE', ( #67 ), #252, .T. ) ;
#43 = CLOSED_SHELL ( 'NONE', ( #163, #202, #42, #138, #4, #209, #286, #98, #212 ) ) ;
#44 = PERSON_AND_ORGANIZATION_ROLE ( 'creator' ) ;
#45 = DIRECTION ( 'NONE',  ( -1.000000000000000000, 0.000000000000000000, 0.000000000000000000 ) ) ;
#46 = CALENDAR_DATE ( 2022, 20, 6 ) ;
#47 = PLANE ( 'NONE',  #68 ) ;
#48 = AXIS2_PLACEMENT_3D ( 'NONE', #222, #124, #114 ) ;
#49 = DIRECTION ( 'NONE',  ( 1.000000000000000000, 0.000000000000000000, 0.000000000000000000 ) ) ;
#50 = CIRCLE ( 'NONE', #58, 0.5000000000000000000 ) ;
#51 = ORIENTED_EDGE ( 'NONE', *, *, #292, .F. ) ;
#52 = CARTESIAN_POINT ( 'NONE',  ( 0.000000000000000000, 0.000000000000000000, 1.199999999999999956 ) ) ;
#53 = ORIENTED_EDGE ( 'NONE', *, *, #11, .F. ) ;
#54 =( NAMED_UNIT ( * ) SI_UNIT ( $, .STERADIAN. ) SOLID_ANGLE_UNIT ( ) );
#55 = ORIENTED_EDGE ( 'NONE', *, *, #266, .T. ) ;
#56 = CARTESIAN_POINT ( 'NONE',  ( 1.250000000000000000, 1.530808498934191571E-16, 1.199999999999999956 ) ) ;
#57 = EDGE_CURVE ( 'NONE', #273, #28, #192, .T. ) ;
#58 = AXIS2_PLACEMENT_3D ( 'NONE', #256, #159, #49 ) ;
#59 = COORDINATED_UNIVERSAL_TIME_OFFSET ( 1, 0, .AHEAD. ) ;
#60 = MECHANICAL_CONTEXT ( 'NONE', #143, 'mechanical' ) ;
#61 = CARTESIAN_POINT ( 'NONE',  ( 0.000000000000000000, 0.000000000000000000, 1.199999999999999956 ) ) ;
#62 = PERSON_AND_ORGANIZATION ( #213, #186 ) ;
#63 = CALENDAR_DATE ( 2022, 20, 6 ) ;
#64 = FACE_OUTER_BOUND ( 'NONE', #216, .T. ) ;
#65 = EDGE_CURVE ( 'NONE', #273, #149, #108, .T. ) ;
#66 = CARTESIAN_POINT ( 'NONE',  ( 0.000000000000000000, 0.000000000000000000, 1.199999999999999956 ) ) ;
#67 = FACE_OUTER_BOUND ( 'NONE', #153, .T. ) ;
#68 = AXIS2_PLACEMENT_3D ( 'NONE', #233, #40, #22 ) ;
#69 = CIRCLE ( 'NONE', #196, 0.5000000000000000000 ) ;
#70 = FACE_OUTER_BOUND ( 'NONE', #241, .T. ) ;
#71 = VECTOR ( 'NONE', #37, 1000.000000000000000 ) ;
#72 = DIRECTION ( 'NONE',  ( 0.000000000000000000, 0.000000000000000000, 1.000000000000000000 ) ) ;
#73 = EDGE_LOOP ( 'NONE', ( #116, #184, #165, #26 ) ) ;
#74 = CC_DESIGN_PERSON_AND_ORGANIZATION_ASSIGNMENT ( #62, #259, ( #126 ) ) ;
#75 = CARTESIAN_POINT ( 'NONE',  ( -1.250000000000000000, 0.000000000000000000, 1.199999999999999956 ) ) ;
#76 = VERTEX_POINT ( 'NONE', #307 ) ;
#77 = CYLINDRICAL_SURFACE ( 'NONE', #48, 0.5000000000000000000 ) ;
#78 = LINE ( 'NONE', #75, #71 ) ;
#79 = DIRECTION ( 'NONE',  ( 0.000000000000000000, 0.000000000000000000, 1.000000000000000000 ) ) ;
#80 = AXIS2_PLACEMENT_3D ( 'NONE', #13, #120, #169 ) ;
#81 = EDGE_CURVE ( 'NONE', #89, #155, #69, .T. ) ;
#82 = CALENDAR_DATE ( 2022, 20, 6 ) ;
#83 = PRODUCT_RELATED_PRODUCT_CATEGORY ( 'detail', '', ( #282 ) ) ;
#84 = DATE_TIME_ROLE ( 'creation_date' ) ;
#85 = AXIS2_PLACEMENT_3D ( 'NONE', #52, #264, #24 ) ;
#86 = DIRECTION ( 'NONE',  ( 1.000000000000000000, 0.000000000000000000, 0.000000000000000000 ) ) ;
#87 = DIRECTION ( 'NONE',  ( 1.000000000000000000, 0.000000000000000000, 0.000000000000000000 ) ) ;
#88 = AXIS2_PLACEMENT_3D ( 'NONE', #203, #111, #291 ) ;
#89 = VERTEX_POINT ( 'NONE', #232 ) ;
#90 = CARTESIAN_POINT ( 'NONE',  ( 0.000000000000000000, 0.000000000000000000, 1.399999999999998579 ) ) ;
#91 = VECTOR ( 'NONE', #10, 1000.000000000000000 ) ;
#92 = CC_DESIGN_PERSON_AND_ORGANIZATION_ASSIGNMENT ( #257, #226, ( #227 ) ) ;
#93 = CARTESIAN_POINT ( 'NONE',  ( 0.000000000000000000, 0.000000000000000000, 1.199999999999999956 ) ) ;
#94 = CARTESIAN_POINT ( 'NONE',  ( -0.5000000000000000000, 0.000000000000000000, 101.2000000000000171 ) ) ;
#95 = VERTEX_POINT ( 'NONE', #179 ) ;
#96 = CARTESIAN_POINT ( 'NONE',  ( -0.5000000000000000000, 0.000000000000000000, 101.2000000000000171 ) ) ;
#97 = EDGE_LOOP ( 'NONE', ( #293, #121, #208, #109 ) ) ;
#98 = ADVANCED_FACE ( 'NONE', ( #64 ), #47, .T. ) ;
#99 = FACE_OUTER_BOUND ( 'NONE', #195, .T. ) ;
#100 = AXIS2_PLACEMENT_3D ( 'NONE', #35, #12, #6 ) ;
#101 = COORDINATED_UNIVERSAL_TIME_OFFSET ( 1, 0, .AHEAD. ) ;
#102 = CIRCLE ( 'NONE', #145, 0.5000000000000000000 ) ;
#103 = CARTESIAN_POINT ( 'NONE',  ( 0.000000000000000000, 0.000000000000000000, 1.199999999999999956 ) ) ;
#104 = SHAPE_DEFINITION_REPRESENTATION ( #240, #38 ) ;
#105 = PLANE ( 'NONE',  #173 ) ;
#106 = CIRCLE ( 'NONE', #260, 0.6999999999999999556 ) ;
#107 = PERSON_AND_ORGANIZATION ( #213, #186 ) ;
#108 = LINE ( 'NONE', #199, #197 ) ;
#109 = ORIENTED_EDGE ( 'NONE', *, *, #237, .T. ) ;
#110 = AXIS2_PLACEMENT_3D ( 'NONE', #272, #117, #33 ) ;
#111 = DIRECTION ( 'NONE',  ( 1.224646799147353207E-16, 1.000000000000000000, -0.000000000000000000 ) ) ;
#112 = FACE_OUTER_BOUND ( 'NONE', #97, .T. ) ;
#113 = AXIS2_PLACEMENT_3D ( 'NONE', #103, #235, #129 ) ;
#114 = DIRECTION ( 'NONE',  ( -1.000000000000000000, 0.000000000000000000, 0.000000000000000000 ) ) ;
#115 = EDGE_CURVE ( 'NONE', #76, #246, #102, .T. ) ;
#116 = ORIENTED_EDGE ( 'NONE', *, *, #287, .F. ) ;
#117 = DIRECTION ( 'NONE',  ( -0.000000000000000000, -0.000000000000000000, -1.000000000000000000 ) ) ;
#118 = APPROVAL ( #180, 'NEURÈENÝ' ) ;
#119 = CC_DESIGN_APPROVAL ( #118, ( #126 ) ) ;
#120 = DIRECTION ( 'NONE',  ( -0.000000000000000000, -0.000000000000000000, -1.000000000000000000 ) ) ;
#121 = ORIENTED_EDGE ( 'NONE', *, *, #123, .F. ) ;
#122 = LINE ( 'NONE', #142, #136 ) ;
#123 = EDGE_CURVE ( 'NONE', #28, #273, #17, .T. ) ;
#124 = DIRECTION ( 'NONE',  ( -0.000000000000000000, -0.000000000000000000, -1.000000000000000000 ) ) ;
#125 = CALENDAR_DATE ( 2022, 20, 6 ) ;
#126 = SECURITY_CLASSIFICATION ( '', '', #229 ) ;
#127 = APPROVAL_ROLE ( '' ) ;
#128 = DATE_TIME_ROLE ( 'classification_date' ) ;
#129 = DIRECTION ( 'NONE',  ( 1.000000000000000000, 0.000000000000000000, 0.000000000000000000 ) ) ;
#130 = CC_DESIGN_PERSON_AND_ORGANIZATION_ASSIGNMENT ( #174, #154, ( #282 ) ) ;
#131 = DATE_AND_TIME ( #82, #296 ) ;
#132 = TOROIDAL_SURFACE ( 'NONE', #176, 0.6999999999999999556, 0.2000000000000000111 ) ;
#133 = DIRECTION ( 'NONE',  ( 0.000000000000000000, 0.000000000000000000, 1.000000000000000000 ) ) ;
#134 = CARTESIAN_POINT ( 'NONE',  ( 0.000000000000000000, 0.000000000000000000, 0.000000000000000000 ) ) ;
#135 = CARTESIAN_POINT ( 'NONE',  ( 0.000000000000000000, 0.000000000000000000, 0.000000000000000000 ) ) ;
#136 = VECTOR ( 'NONE', #146, 1000.000000000000000 ) ;
#137 = ORIENTED_EDGE ( 'NONE', *, *, #278, .T. ) ;
#138 = ADVANCED_FACE ( 'NONE', ( #112 ), #5, .T. ) ;
#139 = ORIENTED_EDGE ( 'NONE', *, *, #123, .T. ) ;
#140 = CARTESIAN_POINT ( 'NONE',  ( 0.000000000000000000, 0.000000000000000000, 101.2000000000000171 ) ) ;
#141 = CC_DESIGN_SECURITY_CLASSIFICATION ( #126, ( #275 ) ) ;
#142 = CARTESIAN_POINT ( 'NONE',  ( 0.5000000000000000000, 6.123233995736766036E-17, 101.2000000000000171 ) ) ;
#143 = APPLICATION_CONTEXT ( 'configuration controlled 3d designs of mechanical parts and assemblies' ) ;
#144 = ORIENTED_EDGE ( 'NONE', *, *, #150, .F. ) ;
#145 = AXIS2_PLACEMENT_3D ( 'NONE', #140, #185, #243 ) ;
#146 = DIRECTION ( 'NONE',  ( -0.000000000000000000, -0.000000000000000000, -1.000000000000000000 ) ) ;
#147 = CC_DESIGN_PERSON_AND_ORGANIZATION_ASSIGNMENT ( #158, #306, ( #275 ) ) ;
#148 = APPLICATION_PROTOCOL_DEFINITION ( 'international standard', 'config_control_design', 1994, #143 ) ;
#149 = VERTEX_POINT ( 'NONE', #236 ) ;
#150 = EDGE_CURVE ( 'NONE', #89, #14, #224, .T. ) ;
#151 = DIRECTION ( 'NONE',  ( 0.000000000000000000, 0.000000000000000000, 1.000000000000000000 ) ) ;
#152 = ORIENTED_EDGE ( 'NONE', *, *, #237, .F. ) ;
#153 = EDGE_LOOP ( 'NONE', ( #298, #297, #205, #300 ) ) ;
#154 = PERSON_AND_ORGANIZATION_ROLE ( 'design_owner' ) ;
#155 = VERTEX_POINT ( 'NONE', #1 ) ;
#156 = APPLICATION_PROTOCOL_DEFINITION ( 'international standard', 'config_control_design', 1994, #219 ) ;
#157 = DIRECTION ( 'NONE',  ( 1.000000000000000000, 0.000000000000000000, 0.000000000000000000 ) ) ;
#158 = PERSON_AND_ORGANIZATION ( #213, #186 ) ;
#159 = DIRECTION ( 'NONE',  ( 0.000000000000000000, 0.000000000000000000, 1.000000000000000000 ) ) ;
#160 = DIRECTION ( 'NONE',  ( 0.000000000000000000, 0.000000000000000000, 1.000000000000000000 ) ) ;
#161 = EDGE_LOOP ( 'NONE', ( #139, #223 ) ) ;
#162 = DIRECTION ( 'NONE',  ( 1.000000000000000000, 0.000000000000000000, 0.000000000000000000 ) ) ;
#163 = ADVANCED_FACE ( 'NONE', ( #70 ), #132, .F. ) ;
#164 = DIRECTION ( 'NONE',  ( 1.000000000000000000, 0.000000000000000000, 0.000000000000000000 ) ) ;
#165 = ORIENTED_EDGE ( 'NONE', *, *, #292, .T. ) ;
#166 = CC_DESIGN_PERSON_AND_ORGANIZATION_ASSIGNMENT ( #107, #44, ( #275 ) ) ;
#167 = DIRECTION ( 'NONE',  ( 0.000000000000000000, 0.000000000000000000, 1.000000000000000000 ) ) ;
#168 = PLANE ( 'NONE',  #100 ) ;
#169 = DIRECTION ( 'NONE',  ( 1.000000000000000000, 0.000000000000000000, 0.000000000000000000 ) ) ;
#170 = CIRCLE ( 'NONE', #301, 1.250000000000000000 ) ;
#171 =( LENGTH_UNIT ( ) NAMED_UNIT ( * ) SI_UNIT ( .MILLI., .METRE. ) );
#172 = ORIENTED_EDGE ( 'NONE', *, *, #287, .T. ) ;
#173 = AXIS2_PLACEMENT_3D ( 'NONE', #66, #160, #183 ) ;
#174 = PERSON_AND_ORGANIZATION ( #213, #186 ) ;
#175 = PERSON_AND_ORGANIZATION ( #213, #186 ) ;
#176 = AXIS2_PLACEMENT_3D ( 'NONE', #90, #72, #162 ) ;
#177 = CARTESIAN_POINT ( 'NONE',  ( 0.000000000000000000, 0.000000000000000000, 1.399999999999998579 ) ) ;
#178 = PERSON_AND_ORGANIZATION ( #213, #186 ) ;
#179 = CARTESIAN_POINT ( 'NONE',  ( 0.6999999999999999556, 0.000000000000000000, 1.199999999999999289 ) ) ;
#180 = APPROVAL_STATUS ( 'not_yet_approved' ) ;
#181 = CARTESIAN_POINT ( 'NONE',  ( 0.6999999999999999556, 0.000000000000000000, 1.399999999999998579 ) ) ;
#182 = AXIS2_PLACEMENT_3D ( 'NONE', #93, #188, #263 ) ;
#183 = DIRECTION ( 'NONE',  ( 1.000000000000000000, 0.000000000000000000, -0.000000000000000000 ) ) ;
#184 = ORIENTED_EDGE ( 'NONE', *, *, #266, .F. ) ;
#185 = DIRECTION ( 'NONE',  ( 0.000000000000000000, 0.000000000000000000, 1.000000000000000000 ) ) ;
#186 = ORGANIZATION ( 'NEURÈENÝ', 'NEURÈENÝ', '' ) ;
#187 = ORIENTED_EDGE ( 'NONE', *, *, #115, .F. ) ;
#188 = DIRECTION ( 'NONE',  ( -0.000000000000000000, -0.000000000000000000, -1.000000000000000000 ) ) ;
#189 = DESIGN_CONTEXT ( 'detailed design', #219, 'design' ) ;
#190 = DIRECTION ( 'NONE',  ( -0.000000000000000000, -0.000000000000000000, -1.000000000000000000 ) ) ;
#191 = CC_DESIGN_APPROVAL ( #220, ( #227 ) ) ;
#192 = CIRCLE ( 'NONE', #113, 1.250000000000000000 ) ;
#193 = CARTESIAN_POINT ( 'NONE',  ( 0.000000000000000000, 0.000000000000000000, 101.2000000000000171 ) ) ;
#194 = DIRECTION ( 'NONE',  ( 1.000000000000000000, 0.000000000000000000, 0.000000000000000000 ) ) ;
#195 = EDGE_LOOP ( 'NONE', ( #144, #53, #280, #2 ) ) ;
#196 = AXIS2_PLACEMENT_3D ( 'NONE', #177, #133, #157 ) ;
#197 = VECTOR ( 'NONE', #304, 1000.000000000000000 ) ;
#198 = FACE_OUTER_BOUND ( 'NONE', #161, .T. ) ;
#199 = CARTESIAN_POINT ( 'NONE',  ( 1.250000000000000000, 1.530808498934191571E-16, 1.199999999999999956 ) ) ;
#200 = AXIS2_PLACEMENT_3D ( 'NONE', #214, #167, #194 ) ;
#201 = COORDINATED_UNIVERSAL_TIME_OFFSET ( 1, 0, .AHEAD. ) ;
#202 = ADVANCED_FACE ( 'NONE', ( #206 ), #77, .T. ) ;
#203 = CARTESIAN_POINT ( 'NONE',  ( -0.6999999999999999556, 8.572527594031471957E-17, 1.399999999999998579 ) ) ;
#204 =( GEOMETRIC_REPRESENTATION_CONTEXT ( 3 ) GLOBAL_UNCERTAINTY_ASSIGNED_CONTEXT ( ( #270 ) ) GLOBAL_UNIT_ASSIGNED_CONTEXT ( ( #171, #250, #54 ) ) REPRESENTATION_CONTEXT ( 'NONE', 'WORKASPACE' ) );
#205 = ORIENTED_EDGE ( 'NONE', *, *, #16, .T. ) ;
#206 = FACE_OUTER_BOUND ( 'NONE', #294, .T. ) ;
#207 = AXIS2_PLACEMENT_3D ( 'NONE', #181, #228, #261 ) ;
#208 = ORIENTED_EDGE ( 'NONE', *, *, #271, .T. ) ;
#209 = ADVANCED_FACE ( 'NONE', ( #295 ), #168, .F. ) ;
#210 = CIRCLE ( 'NONE', #80, 0.6999999999999999556 ) ;
#211 = ORIENTED_EDGE ( 'NONE', *, *, #115, .T. ) ;
#212 = ADVANCED_FACE ( 'NONE', ( #99 ), #36, .F. ) ;
#213 = PERSON ( 'NEURÈENÝ', 'NEURÈENÝ', 'NEURÈENÝ', ('NEURÈENÝ'), ('NEURÈENÝ'), ('NEURÈENÝ') ) ;
#214 = CARTESIAN_POINT ( 'NONE',  ( 0.000000000000000000, 0.000000000000000000, 1.399999999999998579 ) ) ;
#215 = DIRECTION ( 'NONE',  ( 1.000000000000000000, 0.000000000000000000, 0.000000000000000000 ) ) ;
#216 = EDGE_LOOP ( 'NONE', ( #55, #211 ) ) ;
#217 = APPROVAL_PERSON_ORGANIZATION ( #15, #220, #251 ) ;
#218 = FACE_OUTER_BOUND ( 'NONE', #73, .T. ) ;
#219 = APPLICATION_CONTEXT ( 'configuration controlled 3d designs of mechanical parts and assemblies' ) ;
#220 = APPROVAL ( #302, 'NEURÈENÝ' ) ;
#221 = LINE ( 'NONE', #96, #91 ) ;
#222 = CARTESIAN_POINT ( 'NONE',  ( 0.000000000000000000, 0.000000000000000000, 101.2000000000000171 ) ) ;
#223 = ORIENTED_EDGE ( 'NONE', *, *, #57, .T. ) ;
#224 = CIRCLE ( 'NONE', #88, 0.1999999999999999833 ) ;
#225 = AXIS2_PLACEMENT_3D ( 'NONE', #134, #255, #86 ) ;
#226 = PERSON_AND_ORGANIZATION_ROLE ( 'creator' ) ;
#227 = PRODUCT_DEFINITION ( 'NEZNÁMÝ', '', #275, #189 ) ;
#228 = DIRECTION ( 'NONE',  ( 0.000000000000000000, -1.000000000000000000, 0.000000000000000000 ) ) ;
#229 = SECURITY_CLASSIFICATION_LEVEL ( 'unclassified' ) ;
#230 = FACE_BOUND ( 'NONE', #7, .T. ) ;
#231 = DATE_AND_TIME ( #18, #25 ) ;
#232 = CARTESIAN_POINT ( 'NONE',  ( -0.5000000000000000000, 0.000000000000000000, 1.399999999999998579 ) ) ;
#233 = CARTESIAN_POINT ( 'NONE',  ( 0.000000000000000000, 0.000000000000000000, 101.2000000000000171 ) ) ;
#234 = CIRCLE ( 'NONE', #290, 1.250000000000000000 ) ;
#235 = DIRECTION ( 'NONE',  ( 0.000000000000000000, 0.000000000000000000, 1.000000000000000000 ) ) ;
#236 = CARTESIAN_POINT ( 'NONE',  ( 1.250000000000000000, 1.530808498934191571E-16, 0.000000000000000000 ) ) ;
#237 = EDGE_CURVE ( 'NONE', #267, #149, #170, .T. ) ;
#238 = LOCAL_TIME ( 12, 28, 53.00000000000000000, #59 ) ;
#239 = CC_DESIGN_DATE_AND_TIME_ASSIGNMENT ( #303, #128, ( #126 ) ) ;
#240 = PRODUCT_DEFINITION_SHAPE ( 'NONE', 'NONE',  #227 ) ;
#241 = EDGE_LOOP ( 'NONE', ( #268, #277, #248, #245 ) ) ;
#242 = EDGE_LOOP ( 'NONE', ( #152, #32 ) ) ;
#243 = DIRECTION ( 'NONE',  ( 1.000000000000000000, 0.000000000000000000, 0.000000000000000000 ) ) ;
#244 = LOCAL_TIME ( 12, 28, 53.00000000000000000, #285 ) ;
#245 = ORIENTED_EDGE ( 'NONE', *, *, #3, .F. ) ;
#246 = VERTEX_POINT ( 'NONE', #94 ) ;
#247 = CARTESIAN_POINT ( 'NONE',  ( 0.000000000000000000, 0.000000000000000000, 1.199999999999999956 ) ) ;
#248 = ORIENTED_EDGE ( 'NONE', *, *, #249, .F. ) ;
#249 = EDGE_CURVE ( 'NONE', #95, #14, #210, .T. ) ;
#250 =( NAMED_UNIT ( * ) PLANE_ANGLE_UNIT ( ) SI_UNIT ( $, .RADIAN. ) );
#251 = APPROVAL_ROLE ( '' ) ;
#252 = CYLINDRICAL_SURFACE ( 'NONE', #262, 1.250000000000000000 ) ;
#253 = DATE_AND_TIME ( #46, #30 ) ;
#254 = CARTESIAN_POINT ( 'NONE',  ( -1.250000000000000000, 0.000000000000000000, 1.199999999999999956 ) ) ;
#255 = DIRECTION ( 'NONE',  ( 0.000000000000000000, 0.000000000000000000, 1.000000000000000000 ) ) ;
#256 = CARTESIAN_POINT ( 'NONE',  ( 0.000000000000000000, 0.000000000000000000, 1.399999999999998579 ) ) ;
#257 = PERSON_AND_ORGANIZATION ( #213, #186 ) ;
#258 = CIRCLE ( 'NONE', #269, 0.5000000000000000000 ) ;
#259 = PERSON_AND_ORGANIZATION_ROLE ( 'classification_officer' ) ;
#260 = AXIS2_PLACEMENT_3D ( 'NONE', #247, #190, #164 ) ;
#261 = DIRECTION ( 'NONE',  ( 0.000000000000000000, 0.000000000000000000, -1.000000000000000000 ) ) ;
#262 = AXIS2_PLACEMENT_3D ( 'NONE', #61, #19, #45 ) ;
#263 = DIRECTION ( 'NONE',  ( -1.000000000000000000, 0.000000000000000000, 0.000000000000000000 ) ) ;
#264 = DIRECTION ( 'NONE',  ( 0.000000000000000000, 0.000000000000000000, 1.000000000000000000 ) ) ;
#265 = CC_DESIGN_APPROVAL ( #8, ( #275 ) ) ;
#266 = EDGE_CURVE ( 'NONE', #246, #76, #258, .T. ) ;
#267 = VERTEX_POINT ( 'NONE', #274 ) ;
#268 = ORIENTED_EDGE ( 'NONE', *, *, #81, .F. ) ;
#269 = AXIS2_PLACEMENT_3D ( 'NONE', #193, #79, #276 ) ;
#270 = UNCERTAINTY_MEASURE_WITH_UNIT (LENGTH_MEASURE( 1.000000000000000082E-05 ), #171, 'distance_accuracy_value', 'NONE');
#271 = EDGE_CURVE ( 'NONE', #28, #267, #78, .T. ) ;
#272 = CARTESIAN_POINT ( 'NONE',  ( 0.000000000000000000, 0.000000000000000000, 101.2000000000000171 ) ) ;
#273 = VERTEX_POINT ( 'NONE', #56 ) ;
#274 = CARTESIAN_POINT ( 'NONE',  ( -1.250000000000000000, 0.000000000000000000, 0.000000000000000000 ) ) ;
#275 = PRODUCT_DEFINITION_FORMATION_WITH_SPECIFIED_SOURCE ( 'LIBOVOLNÝ', '', #282, .NOT_KNOWN. ) ;
#276 = DIRECTION ( 'NONE',  ( 1.000000000000000000, 0.000000000000000000, 0.000000000000000000 ) ) ;
#277 = ORIENTED_EDGE ( 'NONE', *, *, #150, .T. ) ;
#278 = EDGE_CURVE ( 'NONE', #14, #95, #106, .T. ) ;
#279 = APPROVAL_DATE_TIME ( #131, #8 ) ;
#280 = ORIENTED_EDGE ( 'NONE', *, *, #3, .T. ) ;
#281 = COORDINATED_UNIVERSAL_TIME_OFFSET ( 1, 0, .AHEAD. ) ;
#282 = PRODUCT ( '4440', '4440', '', ( #60 ) ) ;
#283 = APPROVAL_PERSON_ORGANIZATION ( #175, #118, #23 ) ;
#284 = APPROVAL_STATUS ( 'not_yet_approved' ) ;
#285 = COORDINATED_UNIVERSAL_TIME_OFFSET ( 1, 0, .AHEAD. ) ;
#286 = ADVANCED_FACE ( 'NONE', ( #218 ), #299, .T. ) ;
#287 = EDGE_CURVE ( 'NONE', #76, #155, #122, .T. ) ;
#288 = APPROVAL_PERSON_ORGANIZATION ( #178, #8, #127 ) ;
#289 = DIRECTION ( 'NONE',  ( 0.000000000000000000, 0.000000000000000000, 1.000000000000000000 ) ) ;
#290 = AXIS2_PLACEMENT_3D ( 'NONE', #135, #289, #87 ) ;
#291 = DIRECTION ( 'NONE',  ( -1.000000000000000000, 1.224646799147352714E-16, 0.000000000000000000 ) ) ;
#292 = EDGE_CURVE ( 'NONE', #246, #89, #221, .T. ) ;
#293 = ORIENTED_EDGE ( 'NONE', *, *, #65, .F. ) ;
#294 = EDGE_LOOP ( 'NONE', ( #187, #172, #34, #51 ) ) ;
#295 = FACE_OUTER_BOUND ( 'NONE', #242, .T. ) ;
#296 = LOCAL_TIME ( 12, 28, 53.00000000000000000, #201 ) ;
#297 = ORIENTED_EDGE ( 'NONE', *, *, #65, .T. ) ;
#298 = ORIENTED_EDGE ( 'NONE', *, *, #57, .F. ) ;
#299 = CYLINDRICAL_SURFACE ( 'NONE', #110, 0.5000000000000000000 ) ;
#300 = ORIENTED_EDGE ( 'NONE', *, *, #271, .F. ) ;
#301 = AXIS2_PLACEMENT_3D ( 'NONE', #9, #151, #215 ) ;
#302 = APPROVAL_STATUS ( 'not_yet_approved' ) ;
#303 = DATE_AND_TIME ( #63, #238 ) ;
#304 = DIRECTION ( 'NONE',  ( -0.000000000000000000, -0.000000000000000000, -1.000000000000000000 ) ) ;
#305 = CARTESIAN_POINT ( 'NONE',  ( -0.6999999999999999556, 8.572527594031473190E-17, 1.199999999999999289 ) ) ;
#306 = PERSON_AND_ORGANIZATION_ROLE ( 'design_supplier' ) ;
#307 = CARTESIAN_POINT ( 'NONE',  ( 0.5000000000000000000, 6.123233995736766036E-17, 101.2000000000000171 ) ) ;
ENDSEC;
END-ISO-10303-21;
