ISO-10303-21;
HEADER;
FILE_DESCRIPTION (( 'STEP AP203' ),
    '1' );
FILE_NAME ('f318.STEP',
    '2022-06-20T09:57:41',
    ( '' ),
    ( '' ),
    'SwSTEP 2.0',
    'SolidWorks 2019',
    '' );
FILE_SCHEMA (( 'CONFIG_CONTROL_DESIGN' ));
ENDSEC;

DATA;
#1 = DIRECTION ( 'NONE',  ( -1.000000000000000000, 0.000000000000000000, 0.000000000000000000 ) ) ;
#2 = CC_DESIGN_APPROVAL ( #235, ( #96 ) ) ;
#3 = CARTESIAN_POINT ( 'NONE',  ( 3.200000000000000622, 0.000000000000000000, 5.199999999999982414 ) ) ;
#4 = CARTESIAN_POINT ( 'NONE',  ( -3.000000000000000444, 0.000000000000000000, 5.199999999999982414 ) ) ;
#5 = CARTESIAN_POINT ( 'NONE',  ( -6.000000000000000888, 0.000000000000000000, 0.000000000000000000 ) ) ;
#6 = PERSON_AND_ORGANIZATION ( #134, #184 ) ;
#7 = ADVANCED_FACE ( 'NONE', ( #187 ), #137, .T. ) ;
#8 = CC_DESIGN_PERSON_AND_ORGANIZATION_ASSIGNMENT ( #106, #293, ( #96 ) ) ;
#9 = APPROVAL_PERSON_ORGANIZATION ( #30, #35, #108 ) ;
#10 = APPROVAL_DATE_TIME ( #288, #86 ) ;
#11 = DATE_AND_TIME ( #222, #207 ) ;
#12 = DIRECTION ( 'NONE',  ( 0.000000000000000000, 0.000000000000000000, 1.000000000000000000 ) ) ;
#13 = CIRCLE ( 'NONE', #32, 0.2000000000000000944 ) ;
#14 = ORIENTED_EDGE ( 'NONE', *, *, #297, .T. ) ;
#15 = CARTESIAN_POINT ( 'NONE',  ( 0.000000000000000000, 0.000000000000000000, 5.000000000000000000 ) ) ;
#16 = CC_DESIGN_DATE_AND_TIME_ASSIGNMENT ( #245, #57, ( #171 ) ) ;
#17 = DIRECTION ( 'NONE',  ( 0.000000000000000000, 0.000000000000000000, 1.000000000000000000 ) ) ;
#18 = AXIS2_PLACEMENT_3D ( 'NONE', #68, #255, #21 ) ;
#19 = DIRECTION ( 'NONE',  ( 1.000000000000000000, 0.000000000000000000, 0.000000000000000000 ) ) ;
#20 = DIRECTION ( 'NONE',  ( -1.000000000000000000, 0.000000000000000000, 0.000000000000000000 ) ) ;
#21 = DIRECTION ( 'NONE',  ( 1.000000000000000000, 0.000000000000000000, 0.000000000000000000 ) ) ;
#22 = DIRECTION ( 'NONE',  ( -0.000000000000000000, -0.000000000000000000, -1.000000000000000000 ) ) ;
#23 = CARTESIAN_POINT ( 'NONE',  ( 0.000000000000000000, 0.000000000000000000, 635.0000000000000000 ) ) ;
#24 = AXIS2_PLACEMENT_3D ( 'NONE', #276, #277, #39 ) ;
#25 = PERSON_AND_ORGANIZATION ( #134, #184 ) ;
#26 = EDGE_CURVE ( 'NONE', #31, #227, #225, .T. ) ;
#27 = PERSON_AND_ORGANIZATION_ROLE ( 'design_supplier' ) ;
#28 = CC_DESIGN_PERSON_AND_ORGANIZATION_ASSIGNMENT ( #6, #176, ( #256 ) ) ;
#29 = ORIENTED_EDGE ( 'NONE', *, *, #73, .T. ) ;
#30 = PERSON_AND_ORGANIZATION ( #134, #184 ) ;
#31 = VERTEX_POINT ( 'NONE', #117 ) ;
#32 = AXIS2_PLACEMENT_3D ( 'NONE', #272, #156, #246 ) ;
#33 = ADVANCED_FACE ( 'NONE', ( #87 ), #252, .F. ) ;
#34 = PERSON_AND_ORGANIZATION ( #134, #184 ) ;
#35 = APPROVAL ( #221, 'NEURÈENÝ' ) ;
#36 = ORIENTED_EDGE ( 'NONE', *, *, #26, .F. ) ;
#37 = CARTESIAN_POINT ( 'NONE',  ( 3.200000000000000622, 0.000000000000000000, 4.999999999999991118 ) ) ;
#38 = ORIENTED_EDGE ( 'NONE', *, *, #297, .F. ) ;
#39 = DIRECTION ( 'NONE',  ( 1.000000000000000000, 0.000000000000000000, -0.000000000000000000 ) ) ;
#40 = AXIS2_PLACEMENT_3D ( 'NONE', #43, #17, #65 ) ;
#41 = FACE_BOUND ( 'NONE', #195, .T. ) ;
#42 = PRODUCT_RELATED_PRODUCT_CATEGORY ( 'detail', '', ( #256 ) ) ;
#43 = CARTESIAN_POINT ( 'NONE',  ( 0.000000000000000000, 0.000000000000000000, 5.000000000000000000 ) ) ;
#44 = CARTESIAN_POINT ( 'NONE',  ( 6.000000000000000888, 7.347880794884120722E-16, 5.000000000000000000 ) ) ;
#45 = CARTESIAN_POINT ( 'NONE',  ( -3.000000000000000444, 0.000000000000000000, 635.0000000000000000 ) ) ;
#46 = AXIS2_PLACEMENT_3D ( 'NONE', #160, #305, #208 ) ;
#47 = LOCAL_TIME ( 11, 57, 41.00000000000000000, #147 ) ;
#48 = DIRECTION ( 'NONE',  ( 0.000000000000000000, 0.000000000000000000, 1.000000000000000000 ) ) ;
#49 = CC_DESIGN_APPROVAL ( #35, ( #171 ) ) ;
#50 = PRODUCT_DEFINITION ( 'NEZNÁMÝ', '', #96, #124 ) ;
#51 = CYLINDRICAL_SURFACE ( 'NONE', #118, 3.000000000000000444 ) ;
#52 = APPROVAL_ROLE ( '' ) ;
#53 = CC_DESIGN_APPROVAL ( #86, ( #50 ) ) ;
#54 = VERTEX_POINT ( 'NONE', #206 ) ;
#55 = LOCAL_TIME ( 11, 57, 41.00000000000000000, #153 ) ;
#56 = DATE_AND_TIME ( #243, #220 ) ;
#57 = DATE_TIME_ROLE ( 'classification_date' ) ;
#58 = EDGE_LOOP ( 'NONE', ( #173, #175 ) ) ;
#59 = APPROVAL_DATE_TIME ( #130, #235 ) ;
#60 = DIRECTION ( 'NONE',  ( 1.000000000000000000, 0.000000000000000000, 0.000000000000000000 ) ) ;
#61 = AXIS2_PLACEMENT_3D ( 'NONE', #274, #307, #19 ) ;
#62 = ORIENTED_EDGE ( 'NONE', *, *, #159, .T. ) ;
#63 = CIRCLE ( 'NONE', #84, 6.000000000000000888 ) ;
#64 = ORIENTED_EDGE ( 'NONE', *, *, #294, .T. ) ;
#65 = DIRECTION ( 'NONE',  ( 1.000000000000000000, 0.000000000000000000, -0.000000000000000000 ) ) ;
#66 = CIRCLE ( 'NONE', #223, 6.000000000000000888 ) ;
#67 = ORIENTED_EDGE ( 'NONE', *, *, #141, .T. ) ;
#68 = CARTESIAN_POINT ( 'NONE',  ( 0.000000000000000000, 0.000000000000000000, 5.000000000000000000 ) ) ;
#69 = DIRECTION ( 'NONE',  ( 0.000000000000000000, 0.000000000000000000, 1.000000000000000000 ) ) ;
#70 = DIRECTION ( 'NONE',  ( -1.000000000000000000, 0.000000000000000000, 0.000000000000000000 ) ) ;
#71 = VECTOR ( 'NONE', #97, 1000.000000000000000 ) ;
#72 = CYLINDRICAL_SURFACE ( 'NONE', #248, 6.000000000000000888 ) ;
#73 = EDGE_CURVE ( 'NONE', #217, #182, #178, .T. ) ;
#74 = CARTESIAN_POINT ( 'NONE',  ( 3.000000000000000444, 3.673940397442060361E-16, 5.199999999999982414 ) ) ;
#75 = PERSON_AND_ORGANIZATION ( #134, #184 ) ;
#76 = ORIENTED_EDGE ( 'NONE', *, *, #91, .T. ) ;
#77 = VECTOR ( 'NONE', #188, 1000.000000000000000 ) ;
#78 = SECURITY_CLASSIFICATION_LEVEL ( 'unclassified' ) ;
#79 = EDGE_LOOP ( 'NONE', ( #158, #83, #90, #132 ) ) ;
#80 = PERSON_AND_ORGANIZATION ( #134, #184 ) ;
#81 = EDGE_LOOP ( 'NONE', ( #268, #262, #14, #29 ) ) ;
#82 = ADVANCED_FACE ( 'NONE', ( #41, #157 ), #303, .T. ) ;
#83 = ORIENTED_EDGE ( 'NONE', *, *, #159, .F. ) ;
#84 = AXIS2_PLACEMENT_3D ( 'NONE', #133, #238, #142 ) ;
#85 = ORIENTED_EDGE ( 'NONE', *, *, #104, .F. ) ;
#86 = APPROVAL ( #269, 'NEURÈENÝ' ) ;
#87 = FACE_OUTER_BOUND ( 'NONE', #105, .T. ) ;
#88 = CARTESIAN_POINT ( 'NONE',  ( 0.000000000000000000, 0.000000000000000000, 5.199999999999982414 ) ) ;
#89 = CC_DESIGN_SECURITY_CLASSIFICATION ( #171, ( #96 ) ) ;
#90 = ORIENTED_EDGE ( 'NONE', *, *, #116, .T. ) ;
#91 = EDGE_CURVE ( 'NONE', #152, #177, #125, .T. ) ;
#92 = EDGE_LOOP ( 'NONE', ( #62, #233 ) ) ;
#93 = EDGE_CURVE ( 'NONE', #54, #201, #66, .T. ) ;
#94 = AXIS2_PLACEMENT_3D ( 'NONE', #250, #161, #253 ) ;
#95 = CARTESIAN_POINT ( 'NONE',  ( 3.000000000000000444, 3.673940397442060361E-16, 635.0000000000000000 ) ) ;
#96 = PRODUCT_DEFINITION_FORMATION_WITH_SPECIFIED_SOURCE ( 'LIBOVOLNÝ', '', #256, .NOT_KNOWN. ) ;
#97 = DIRECTION ( 'NONE',  ( -0.000000000000000000, -0.000000000000000000, -1.000000000000000000 ) ) ;
#98 = CC_DESIGN_DATE_AND_TIME_ASSIGNMENT ( #56, #240, ( #50 ) ) ;
#99 = CARTESIAN_POINT ( 'NONE',  ( 0.000000000000000000, 0.000000000000000000, 5.000000000000000000 ) ) ;
#100 = FACE_OUTER_BOUND ( 'NONE', #279, .T. ) ;
#101 = EDGE_CURVE ( 'NONE', #182, #217, #239, .T. ) ;
#102 = AXIS2_PLACEMENT_3D ( 'NONE', #257, #48, #213 ) ;
#103 = CARTESIAN_POINT ( 'NONE',  ( 0.000000000000000000, 0.000000000000000000, 5.000000000000000000 ) ) ;
#104 = EDGE_CURVE ( 'NONE', #230, #266, #210, .T. ) ;
#105 = EDGE_LOOP ( 'NONE', ( #296, #85 ) ) ;
#106 = PERSON_AND_ORGANIZATION ( #134, #184 ) ;
#107 = ORIENTED_EDGE ( 'NONE', *, *, #116, .F. ) ;
#108 = APPROVAL_ROLE ( '' ) ;
#109 = ADVANCED_FACE ( 'NONE', ( #114 ), #121, .F. ) ;
#110 = APPLICATION_PROTOCOL_DEFINITION ( 'international standard', 'config_control_design', 1994, #267 ) ;
#111 = LINE ( 'NONE', #302, #273 ) ;
#112 =( GEOMETRIC_REPRESENTATION_CONTEXT ( 3 ) GLOBAL_UNCERTAINTY_ASSIGNED_CONTEXT ( ( #237 ) ) GLOBAL_UNIT_ASSIGNED_CONTEXT ( ( #127, #172, #291 ) ) REPRESENTATION_CONTEXT ( 'NONE', 'WORKASPACE' ) );
#113 = DIRECTION ( 'NONE',  ( -1.000000000000000000, 0.000000000000000000, 0.000000000000000000 ) ) ;
#114 = FACE_OUTER_BOUND ( 'NONE', #129, .T. ) ;
#115 = AXIS2_PLACEMENT_3D ( 'NONE', #88, #119, #204 ) ;
#116 = EDGE_CURVE ( 'NONE', #201, #266, #111, .T. ) ;
#117 = CARTESIAN_POINT ( 'NONE',  ( 3.000000000000000444, 3.673940397442060361E-16, 635.0000000000000000 ) ) ;
#118 = AXIS2_PLACEMENT_3D ( 'NONE', #23, #166, #70 ) ;
#119 = DIRECTION ( 'NONE',  ( 0.000000000000000000, 0.000000000000000000, 1.000000000000000000 ) ) ;
#120 = DIRECTION ( 'NONE',  ( -0.000000000000000000, -0.000000000000000000, -1.000000000000000000 ) ) ;
#121 = TOROIDAL_SURFACE ( 'NONE', #290, 3.200000000000000622, 0.2000000000000000111 ) ;
#122 = DIRECTION ( 'NONE',  ( -0.000000000000000000, -0.000000000000000000, -1.000000000000000000 ) ) ;
#123 = DIRECTION ( 'NONE',  ( 0.000000000000000000, 0.000000000000000000, 1.000000000000000000 ) ) ;
#124 = DESIGN_CONTEXT ( 'detailed design', #267, 'design' ) ;
#125 = CIRCLE ( 'NONE', #298, 3.200000000000000622 ) ;
#126 = AXIS2_PLACEMENT_3D ( 'NONE', #190, #69, #143 ) ;
#127 =( LENGTH_UNIT ( ) NAMED_UNIT ( * ) SI_UNIT ( .MILLI., .METRE. ) );
#128 = COORDINATED_UNIVERSAL_TIME_OFFSET ( 1, 0, .AHEAD. ) ;
#129 = EDGE_LOOP ( 'NONE', ( #219, #67, #196, #199 ) ) ;
#130 = DATE_AND_TIME ( #242, #135 ) ;
#131 = CALENDAR_DATE ( 2022, 20, 6 ) ;
#132 = ORIENTED_EDGE ( 'NONE', *, *, #306, .T. ) ;
#133 = CARTESIAN_POINT ( 'NONE',  ( 0.000000000000000000, 0.000000000000000000, 5.000000000000000000 ) ) ;
#134 = PERSON ( 'NEURÈENÝ', 'NEURÈENÝ', 'NEURÈENÝ', ('NEURÈENÝ'), ('NEURÈENÝ'), ('NEURÈENÝ') ) ;
#135 = LOCAL_TIME ( 11, 57, 41.00000000000000000, #128 ) ;
#136 = CARTESIAN_POINT ( 'NONE',  ( 0.000000000000000000, 0.000000000000000000, 5.000000000000000000 ) ) ;
#137 = CYLINDRICAL_SURFACE ( 'NONE', #138, 3.000000000000000444 ) ;
#138 = AXIS2_PLACEMENT_3D ( 'NONE', #304, #139, #113 ) ;
#139 = DIRECTION ( 'NONE',  ( -0.000000000000000000, -0.000000000000000000, -1.000000000000000000 ) ) ;
#140 = CARTESIAN_POINT ( 'NONE',  ( 0.000000000000000000, 0.000000000000000000, 5.199999999999982414 ) ) ;
#141 = EDGE_CURVE ( 'NONE', #217, #177, #13, .T. ) ;
#142 = DIRECTION ( 'NONE',  ( 1.000000000000000000, 0.000000000000000000, 0.000000000000000000 ) ) ;
#143 = DIRECTION ( 'NONE',  ( 1.000000000000000000, 0.000000000000000000, 0.000000000000000000 ) ) ;
#144 = AXIS2_PLACEMENT_3D ( 'NONE', #3, #146, #164 ) ;
#145 = DIRECTION ( 'NONE',  ( 0.000000000000000000, 0.000000000000000000, 1.000000000000000000 ) ) ;
#146 = DIRECTION ( 'NONE',  ( 0.000000000000000000, -1.000000000000000000, 0.000000000000000000 ) ) ;
#147 = COORDINATED_UNIVERSAL_TIME_OFFSET ( 1, 0, .AHEAD. ) ;
#148 = APPROVAL_ROLE ( '' ) ;
#149 = ORIENTED_EDGE ( 'NONE', *, *, #101, .T. ) ;
#150 = PERSON_AND_ORGANIZATION ( #134, #184 ) ;
#151 = APPROVAL_STATUS ( 'not_yet_approved' ) ;
#152 = VERTEX_POINT ( 'NONE', #37 ) ;
#153 = COORDINATED_UNIVERSAL_TIME_OFFSET ( 1, 0, .AHEAD. ) ;
#154 = VECTOR ( 'NONE', #120, 1000.000000000000000 ) ;
#155 = ORIENTED_EDGE ( 'NONE', *, *, #101, .F. ) ;
#156 = DIRECTION ( 'NONE',  ( 1.224646799147353207E-16, 1.000000000000000000, -0.000000000000000000 ) ) ;
#157 = FACE_OUTER_BOUND ( 'NONE', #92, .T. ) ;
#158 = ORIENTED_EDGE ( 'NONE', *, *, #247, .F. ) ;
#159 = EDGE_CURVE ( 'NONE', #201, #54, #63, .T. ) ;
#160 = CARTESIAN_POINT ( 'NONE',  ( 0.000000000000000000, 0.000000000000000000, 0.000000000000000000 ) ) ;
#161 = DIRECTION ( 'NONE',  ( 0.000000000000000000, 0.000000000000000000, 1.000000000000000000 ) ) ;
#162 = AXIS2_PLACEMENT_3D ( 'NONE', #236, #123, #163 ) ;
#163 = DIRECTION ( 'NONE',  ( 1.000000000000000000, 0.000000000000000000, 0.000000000000000000 ) ) ;
#164 = DIRECTION ( 'NONE',  ( 0.000000000000000000, 0.000000000000000000, -1.000000000000000000 ) ) ;
#165 = FACE_OUTER_BOUND ( 'NONE', #79, .T. ) ;
#166 = DIRECTION ( 'NONE',  ( -0.000000000000000000, -0.000000000000000000, -1.000000000000000000 ) ) ;
#167 = LINE ( 'NONE', #95, #77 ) ;
#168 = ADVANCED_FACE ( 'NONE', ( #214 ), #51, .T. ) ;
#169 = DIRECTION ( 'NONE',  ( 0.000000000000000000, 0.000000000000000000, 1.000000000000000000 ) ) ;
#170 = ORIENTED_EDGE ( 'NONE', *, *, #93, .F. ) ;
#171 = SECURITY_CLASSIFICATION ( '', '', #78 ) ;
#172 =( NAMED_UNIT ( * ) PLANE_ANGLE_UNIT ( ) SI_UNIT ( $, .RADIAN. ) );
#173 = ORIENTED_EDGE ( 'NONE', *, *, #271, .T. ) ;
#174 = CALENDAR_DATE ( 2022, 20, 6 ) ;
#175 = ORIENTED_EDGE ( 'NONE', *, *, #26, .T. ) ;
#176 = PERSON_AND_ORGANIZATION_ROLE ( 'design_owner' ) ;
#177 = VERTEX_POINT ( 'NONE', #194 ) ;
#178 = CIRCLE ( 'NONE', #115, 3.000000000000000444 ) ;
#179 = ORIENTED_EDGE ( 'NONE', *, *, #247, .T. ) ;
#180 = ADVANCED_FACE ( 'NONE', ( #100 ), #212, .F. ) ;
#181 = DIRECTION ( 'NONE',  ( -0.000000000000000000, -0.000000000000000000, -1.000000000000000000 ) ) ;
#182 = VERTEX_POINT ( 'NONE', #74 ) ;
#183 = CC_DESIGN_PERSON_AND_ORGANIZATION_ASSIGNMENT ( #25, #27, ( #96 ) ) ;
#184 = ORGANIZATION ( 'NEURÈENÝ', 'NEURÈENÝ', '' ) ;
#185 = EDGE_LOOP ( 'NONE', ( #36, #300, #149, #38 ) ) ;
#186 = ADVANCED_FACE ( 'NONE', ( #285 ), #259, .T. ) ;
#187 = FACE_OUTER_BOUND ( 'NONE', #81, .T. ) ;
#188 = DIRECTION ( 'NONE',  ( -0.000000000000000000, -0.000000000000000000, -1.000000000000000000 ) ) ;
#189 = APPROVAL_PERSON_ORGANIZATION ( #34, #86, #52 ) ;
#190 = CARTESIAN_POINT ( 'NONE',  ( 0.000000000000000000, 0.000000000000000000, 0.000000000000000000 ) ) ;
#191 = CARTESIAN_POINT ( 'NONE',  ( -6.000000000000000888, 0.000000000000000000, 5.000000000000000000 ) ) ;
#192 = FACE_OUTER_BOUND ( 'NONE', #58, .T. ) ;
#193 = CIRCLE ( 'NONE', #126, 6.000000000000000888 ) ;
#194 = CARTESIAN_POINT ( 'NONE',  ( -3.200000000000000622, 3.918869757271530953E-16, 4.999999999999991118 ) ) ;
#195 = EDGE_LOOP ( 'NONE', ( #76, #64 ) ) ;
#196 = ORIENTED_EDGE ( 'NONE', *, *, #91, .F. ) ;
#197 = MECHANICAL_CONTEXT ( 'NONE', #251, 'mechanical' ) ;
#198 = MANIFOLD_SOLID_BREP ( 'Zaoblit1', #231 ) ;
#199 = ORIENTED_EDGE ( 'NONE', *, *, #232, .F. ) ;
#200 = COORDINATED_UNIVERSAL_TIME_OFFSET ( 1, 0, .AHEAD. ) ;
#201 = VERTEX_POINT ( 'NONE', #191 ) ;
#202 = APPROVAL_DATE_TIME ( #11, #35 ) ;
#203 = DIRECTION ( 'NONE',  ( 1.000000000000000000, 0.000000000000000000, 0.000000000000000000 ) ) ;
#204 = DIRECTION ( 'NONE',  ( 1.000000000000000000, 0.000000000000000000, 0.000000000000000000 ) ) ;
#205 = DIRECTION ( 'NONE',  ( 0.000000000000000000, 0.000000000000000000, 1.000000000000000000 ) ) ;
#206 = CARTESIAN_POINT ( 'NONE',  ( 6.000000000000000888, 7.347880794884120722E-16, 5.000000000000000000 ) ) ;
#207 = LOCAL_TIME ( 11, 57, 41.00000000000000000, #200 ) ;
#208 = DIRECTION ( 'NONE',  ( 1.000000000000000000, 0.000000000000000000, 0.000000000000000000 ) ) ;
#209 = DIRECTION ( 'NONE',  ( 1.000000000000000000, 0.000000000000000000, -0.000000000000000000 ) ) ;
#210 = CIRCLE ( 'NONE', #46, 6.000000000000000888 ) ;
#211 = LINE ( 'NONE', #45, #71 ) ;
#212 = TOROIDAL_SURFACE ( 'NONE', #102, 3.200000000000000622, 0.2000000000000000111 ) ;
#213 = DIRECTION ( 'NONE',  ( 1.000000000000000000, 0.000000000000000000, 0.000000000000000000 ) ) ;
#214 = FACE_OUTER_BOUND ( 'NONE', #185, .T. ) ;
#215 = CARTESIAN_POINT ( 'NONE',  ( 6.000000000000000888, 7.347880794884120722E-16, 0.000000000000000000 ) ) ;
#216 = COORDINATED_UNIVERSAL_TIME_OFFSET ( 1, 0, .AHEAD. ) ;
#217 = VERTEX_POINT ( 'NONE', #4 ) ;
#218 = DIRECTION ( 'NONE',  ( 1.000000000000000000, 0.000000000000000000, 0.000000000000000000 ) ) ;
#219 = ORIENTED_EDGE ( 'NONE', *, *, #73, .F. ) ;
#220 = LOCAL_TIME ( 11, 57, 41.00000000000000000, #216 ) ;
#221 = APPROVAL_STATUS ( 'not_yet_approved' ) ;
#222 = CALENDAR_DATE ( 2022, 20, 6 ) ;
#223 = AXIS2_PLACEMENT_3D ( 'NONE', #15, #205, #60 ) ;
#224 = ORIENTED_EDGE ( 'NONE', *, *, #104, .T. ) ;
#225 = CIRCLE ( 'NONE', #61, 3.000000000000000444 ) ;
#226 = CIRCLE ( 'NONE', #162, 3.000000000000000444 ) ;
#227 = VERTEX_POINT ( 'NONE', #234 ) ;
#228 = ADVANCED_FACE ( 'NONE', ( #192 ), #260, .T. ) ;
#229 = DIRECTION ( 'NONE',  ( 1.000000000000000000, 0.000000000000000000, 0.000000000000000000 ) ) ;
#230 = VERTEX_POINT ( 'NONE', #215 ) ;
#231 = CLOSED_SHELL ( 'NONE', ( #109, #168, #186, #281, #82, #33, #7, #228, #180 ) ) ;
#232 = EDGE_CURVE ( 'NONE', #182, #152, #301, .T. ) ;
#233 = ORIENTED_EDGE ( 'NONE', *, *, #93, .T. ) ;
#234 = CARTESIAN_POINT ( 'NONE',  ( -3.000000000000000444, 0.000000000000000000, 635.0000000000000000 ) ) ;
#235 = APPROVAL ( #151, 'NEURÈENÝ' ) ;
#236 = CARTESIAN_POINT ( 'NONE',  ( 0.000000000000000000, 0.000000000000000000, 635.0000000000000000 ) ) ;
#237 = UNCERTAINTY_MEASURE_WITH_UNIT (LENGTH_MEASURE( 1.000000000000000082E-05 ), #127, 'distance_accuracy_value', 'NONE');
#238 = DIRECTION ( 'NONE',  ( 0.000000000000000000, 0.000000000000000000, 1.000000000000000000 ) ) ;
#239 = CIRCLE ( 'NONE', #94, 3.000000000000000444 ) ;
#240 = DATE_TIME_ROLE ( 'creation_date' ) ;
#241 = EDGE_LOOP ( 'NONE', ( #170, #179, #224, #107 ) ) ;
#242 = CALENDAR_DATE ( 2022, 20, 6 ) ;
#243 = CALENDAR_DATE ( 2022, 20, 6 ) ;
#244 = CC_DESIGN_PERSON_AND_ORGANIZATION_ASSIGNMENT ( #75, #261, ( #50 ) ) ;
#245 = DATE_AND_TIME ( #131, #55 ) ;
#246 = DIRECTION ( 'NONE',  ( -1.000000000000000000, 1.224646799147353207E-16, 0.000000000000000000 ) ) ;
#247 = EDGE_CURVE ( 'NONE', #54, #230, #286, .T. ) ;
#248 = AXIS2_PLACEMENT_3D ( 'NONE', #103, #22, #1 ) ;
#249 = DIRECTION ( 'NONE',  ( -0.000000000000000000, -0.000000000000000000, -1.000000000000000000 ) ) ;
#250 = CARTESIAN_POINT ( 'NONE',  ( 0.000000000000000000, 0.000000000000000000, 5.199999999999982414 ) ) ;
#251 = APPLICATION_CONTEXT ( 'configuration controlled 3d designs of mechanical parts and assemblies' ) ;
#252 = PLANE ( 'NONE',  #24 ) ;
#253 = DIRECTION ( 'NONE',  ( 1.000000000000000000, 0.000000000000000000, 0.000000000000000000 ) ) ;
#254 = AXIS2_PLACEMENT_3D ( 'NONE', #283, #145, #209 ) ;
#255 = DIRECTION ( 'NONE',  ( -0.000000000000000000, -0.000000000000000000, -1.000000000000000000 ) ) ;
#256 = PRODUCT ( 'f318', 'f318', '', ( #197 ) ) ;
#257 = CARTESIAN_POINT ( 'NONE',  ( 0.000000000000000000, 0.000000000000000000, 5.199999999999982414 ) ) ;
#258 = APPROVAL_PERSON_ORGANIZATION ( #150, #235, #148 ) ;
#259 = CYLINDRICAL_SURFACE ( 'NONE', #275, 6.000000000000000888 ) ;
#260 = PLANE ( 'NONE',  #254 ) ;
#261 = PERSON_AND_ORGANIZATION_ROLE ( 'creator' ) ;
#262 = ORIENTED_EDGE ( 'NONE', *, *, #271, .F. ) ;
#263 = APPLICATION_PROTOCOL_DEFINITION ( 'international standard', 'config_control_design', 1994, #251 ) ;
#264 = ORIENTED_EDGE ( 'NONE', *, *, #294, .F. ) ;
#265 = PERSON_AND_ORGANIZATION_ROLE ( 'classification_officer' ) ;
#266 = VERTEX_POINT ( 'NONE', #5 ) ;
#267 = APPLICATION_CONTEXT ( 'configuration controlled 3d designs of mechanical parts and assemblies' ) ;
#268 = ORIENTED_EDGE ( 'NONE', *, *, #287, .F. ) ;
#269 = APPROVAL_STATUS ( 'not_yet_approved' ) ;
#270 = ORIENTED_EDGE ( 'NONE', *, *, #232, .T. ) ;
#271 = EDGE_CURVE ( 'NONE', #227, #31, #226, .T. ) ;
#272 = CARTESIAN_POINT ( 'NONE',  ( -3.200000000000000622, 3.918869757271530953E-16, 5.199999999999982414 ) ) ;
#273 = VECTOR ( 'NONE', #181, 1000.000000000000000 ) ;
#274 = CARTESIAN_POINT ( 'NONE',  ( 0.000000000000000000, 0.000000000000000000, 635.0000000000000000 ) ) ;
#275 = AXIS2_PLACEMENT_3D ( 'NONE', #99, #122, #20 ) ;
#276 = CARTESIAN_POINT ( 'NONE',  ( 0.000000000000000000, 0.000000000000000000, 0.000000000000000000 ) ) ;
#277 = DIRECTION ( 'NONE',  ( 0.000000000000000000, 0.000000000000000000, 1.000000000000000000 ) ) ;
#278 = CC_DESIGN_PERSON_AND_ORGANIZATION_ASSIGNMENT ( #80, #265, ( #171 ) ) ;
#279 = EDGE_LOOP ( 'NONE', ( #289, #155, #270, #264 ) ) ;
#280 = PRODUCT_DEFINITION_SHAPE ( 'NONE', 'NONE',  #50 ) ;
#281 = ADVANCED_FACE ( 'NONE', ( #165 ), #72, .T. ) ;
#282 = AXIS2_PLACEMENT_3D ( 'NONE', #295, #169, #218 ) ;
#283 = CARTESIAN_POINT ( 'NONE',  ( 0.000000000000000000, 0.000000000000000000, 635.0000000000000000 ) ) ;
#284 = ADVANCED_BREP_SHAPE_REPRESENTATION ( 'f318', ( #198, #282 ), #112 ) ;
#285 = FACE_OUTER_BOUND ( 'NONE', #241, .T. ) ;
#286 = LINE ( 'NONE', #44, #154 ) ;
#287 = EDGE_CURVE ( 'NONE', #31, #182, #167, .T. ) ;
#288 = DATE_AND_TIME ( #174, #47 ) ;
#289 = ORIENTED_EDGE ( 'NONE', *, *, #141, .F. ) ;
#290 = AXIS2_PLACEMENT_3D ( 'NONE', #140, #12, #203 ) ;
#291 =( NAMED_UNIT ( * ) SI_UNIT ( $, .STERADIAN. ) SOLID_ANGLE_UNIT ( ) );
#292 = CIRCLE ( 'NONE', #18, 3.200000000000000622 ) ;
#293 = PERSON_AND_ORGANIZATION_ROLE ( 'creator' ) ;
#294 = EDGE_CURVE ( 'NONE', #177, #152, #292, .T. ) ;
#295 = CARTESIAN_POINT ( 'NONE',  ( 0.000000000000000000, 0.000000000000000000, 0.000000000000000000 ) ) ;
#296 = ORIENTED_EDGE ( 'NONE', *, *, #306, .F. ) ;
#297 = EDGE_CURVE ( 'NONE', #227, #217, #211, .T. ) ;
#298 = AXIS2_PLACEMENT_3D ( 'NONE', #136, #249, #229 ) ;
#299 = SHAPE_DEFINITION_REPRESENTATION ( #280, #284 ) ;
#300 = ORIENTED_EDGE ( 'NONE', *, *, #287, .T. ) ;
#301 = CIRCLE ( 'NONE', #144, 0.1999999999999996503 ) ;
#302 = CARTESIAN_POINT ( 'NONE',  ( -6.000000000000000888, 0.000000000000000000, 5.000000000000000000 ) ) ;
#303 = PLANE ( 'NONE',  #40 ) ;
#304 = CARTESIAN_POINT ( 'NONE',  ( 0.000000000000000000, 0.000000000000000000, 635.0000000000000000 ) ) ;
#305 = DIRECTION ( 'NONE',  ( 0.000000000000000000, 0.000000000000000000, 1.000000000000000000 ) ) ;
#306 = EDGE_CURVE ( 'NONE', #266, #230, #193, .T. ) ;
#307 = DIRECTION ( 'NONE',  ( 0.000000000000000000, 0.000000000000000000, 1.000000000000000000 ) ) ;
ENDSEC;
END-ISO-10303-21;
