ISO-10303-21;
HEADER;
FILE_DESCRIPTION (( 'STEP AP203' ),
    '1' );
FILE_NAME ('ef44.STEP',
    '2022-06-20T10:14:21',
    ( '' ),
    ( '' ),
    'SwSTEP 2.0',
    'SolidWorks 2019',
    '' );
FILE_SCHEMA (( 'CONFIG_CONTROL_DESIGN' ));
ENDSEC;

DATA;
#1 = COORDINATED_UNIVERSAL_TIME_OFFSET ( 1, 0, .AHEAD. ) ;
#2 = ADVANCED_FACE ( 'NONE', ( #168 ), #267, .F. ) ;
#3 = SECURITY_CLASSIFICATION ( '', '', #212 ) ;
#4 = CARTESIAN_POINT ( 'NONE',  ( 0.000000000000000000, 0.000000000000000000, 633.0000000000000000 ) ) ;
#5 = AXIS2_PLACEMENT_3D ( 'NONE', #118, #100, #172 ) ;
#6 = CC_DESIGN_APPROVAL ( #249, ( #282 ) ) ;
#7 = VERTEX_POINT ( 'NONE', #10 ) ;
#8 = LOCAL_TIME ( 12, 14, 21.00000000000000000, #181 ) ;
#9 = CARTESIAN_POINT ( 'NONE',  ( 0.000000000000000000, 0.000000000000000000, 3.000000000000000000 ) ) ;
#10 = CARTESIAN_POINT ( 'NONE',  ( 1.500000000000000222, 1.836970198721030181E-16, 633.0000000000000000 ) ) ;
#11 = DIRECTION ( 'NONE',  ( 1.000000000000000000, 0.000000000000000000, 0.000000000000000000 ) ) ;
#12 = ADVANCED_BREP_SHAPE_REPRESENTATION ( 'ef44', ( #107, #126 ), #87 ) ;
#13 = ORIENTED_EDGE ( 'NONE', *, *, #94, .T. ) ;
#14 = DIRECTION ( 'NONE',  ( -0.000000000000000000, -0.000000000000000000, -1.000000000000000000 ) ) ;
#15 = VERTEX_POINT ( 'NONE', #123 ) ;
#16 = FACE_OUTER_BOUND ( 'NONE', #120, .T. ) ;
#17 = AXIS2_PLACEMENT_3D ( 'NONE', #109, #299, #84 ) ;
#18 = CARTESIAN_POINT ( 'NONE',  ( 0.000000000000000000, 0.000000000000000000, 3.000000000000000000 ) ) ;
#19 = DIRECTION ( 'NONE',  ( 0.000000000000000000, 0.000000000000000000, 1.000000000000000000 ) ) ;
#20 = CC_DESIGN_SECURITY_CLASSIFICATION ( #3, ( #282 ) ) ;
#21 = FACE_OUTER_BOUND ( 'NONE', #29, .T. ) ;
#22 = PERSON_AND_ORGANIZATION_ROLE ( 'design_owner' ) ;
#23 = DIRECTION ( 'NONE',  ( -1.000000000000000000, 1.224646799147353207E-16, 0.000000000000000000 ) ) ;
#24 = APPROVAL_ROLE ( '' ) ;
#25 = DIRECTION ( 'NONE',  ( 0.000000000000000000, 0.000000000000000000, 1.000000000000000000 ) ) ;
#26 = APPLICATION_CONTEXT ( 'configuration controlled 3d designs of mechanical parts and assemblies' ) ;
#27 = TOROIDAL_SURFACE ( 'NONE', #163, 1.700000000000000400, 0.2000000000000000111 ) ;
#28 = EDGE_LOOP ( 'NONE', ( #61, #164 ) ) ;
#29 = EDGE_LOOP ( 'NONE', ( #31, #197, #99, #244 ) ) ;
#30 = APPROVAL ( #67, 'NEURÈENÝ' ) ;
#31 = ORIENTED_EDGE ( 'NONE', *, *, #51, .F. ) ;
#32 = DIRECTION ( 'NONE',  ( -0.000000000000000000, -0.000000000000000000, -1.000000000000000000 ) ) ;
#33 = VERTEX_POINT ( 'NONE', #97 ) ;
#34 = ADVANCED_FACE ( 'NONE', ( #219 ), #220, .T. ) ;
#35 = ORIENTED_EDGE ( 'NONE', *, *, #214, .T. ) ;
#36 = DIRECTION ( 'NONE',  ( 1.000000000000000000, 0.000000000000000000, 0.000000000000000000 ) ) ;
#37 = VERTEX_POINT ( 'NONE', #272 ) ;
#38 = DIRECTION ( 'NONE',  ( 0.000000000000000000, 0.000000000000000000, -1.000000000000000000 ) ) ;
#39 = FACE_BOUND ( 'NONE', #55, .T. ) ;
#40 = AXIS2_PLACEMENT_3D ( 'NONE', #9, #32, #36 ) ;
#41 = CARTESIAN_POINT ( 'NONE',  ( 1.700000000000000400, 0.000000000000000000, 3.199999999999980638 ) ) ;
#42 = DIRECTION ( 'NONE',  ( 0.000000000000000000, 0.000000000000000000, 1.000000000000000000 ) ) ;
#43 = CC_DESIGN_PERSON_AND_ORGANIZATION_ASSIGNMENT ( #304, #184, ( #91 ) ) ;
#44 = COORDINATED_UNIVERSAL_TIME_OFFSET ( 1, 0, .AHEAD. ) ;
#45 = CYLINDRICAL_SURFACE ( 'NONE', #257, 3.000000000000000444 ) ;
#46 = AXIS2_PLACEMENT_3D ( 'NONE', #122, #147, #83 ) ;
#47 = DIRECTION ( 'NONE',  ( 1.000000000000000000, 0.000000000000000000, 0.000000000000000000 ) ) ;
#48 = EDGE_CURVE ( 'NONE', #7, #166, #295, .T. ) ;
#49 = CALENDAR_DATE ( 2022, 20, 6 ) ;
#50 = APPROVAL_DATE_TIME ( #68, #249 ) ;
#51 = EDGE_CURVE ( 'NONE', #15, #72, #113, .T. ) ;
#52 = CC_DESIGN_APPROVAL ( #30, ( #91 ) ) ;
#53 = APPROVAL_PERSON_ORGANIZATION ( #136, #236, #24 ) ;
#54 = CIRCLE ( 'NONE', #224, 1.500000000000000222 ) ;
#55 = EDGE_LOOP ( 'NONE', ( #242, #140 ) ) ;
#56 = ORIENTED_EDGE ( 'NONE', *, *, #48, .T. ) ;
#57 = ORIENTED_EDGE ( 'NONE', *, *, #141, .F. ) ;
#58 = CARTESIAN_POINT ( 'NONE',  ( -1.500000000000000222, 0.000000000000000000, 633.0000000000000000 ) ) ;
#59 = ORIENTED_EDGE ( 'NONE', *, *, #307, .T. ) ;
#60 = DIRECTION ( 'NONE',  ( 1.000000000000000000, 0.000000000000000000, 0.000000000000000000 ) ) ;
#61 = ORIENTED_EDGE ( 'NONE', *, *, #94, .F. ) ;
#62 = DIRECTION ( 'NONE',  ( -0.000000000000000000, -0.000000000000000000, -1.000000000000000000 ) ) ;
#63 = DIRECTION ( 'NONE',  ( 1.000000000000000000, 0.000000000000000000, 0.000000000000000000 ) ) ;
#64 = ADVANCED_FACE ( 'NONE', ( #21 ), #115, .F. ) ;
#65 = APPROVAL_STATUS ( 'not_yet_approved' ) ;
#66 = FACE_OUTER_BOUND ( 'NONE', #292, .T. ) ;
#67 = APPROVAL_STATUS ( 'not_yet_approved' ) ;
#68 = DATE_AND_TIME ( #111, #283 ) ;
#69 = AXIS2_PLACEMENT_3D ( 'NONE', #177, #144, #11 ) ;
#70 = APPROVAL_DATE_TIME ( #278, #236 ) ;
#71 = ADVANCED_FACE ( 'NONE', ( #208 ), #202, .T. ) ;
#72 = VERTEX_POINT ( 'NONE', #132 ) ;
#73 = ORIENTED_EDGE ( 'NONE', *, *, #195, .T. ) ;
#74 = ADVANCED_FACE ( 'NONE', ( #66 ), #45, .T. ) ;
#75 = LINE ( 'NONE', #266, #93 ) ;
#76 = ORIENTED_EDGE ( 'NONE', *, *, #48, .F. ) ;
#77 = CIRCLE ( 'NONE', #69, 3.000000000000000444 ) ;
#78 = ORIENTED_EDGE ( 'NONE', *, *, #204, .F. ) ;
#79 = CARTESIAN_POINT ( 'NONE',  ( 3.000000000000000444, 3.673940397442060361E-16, 0.000000000000000000 ) ) ;
#80 = ORIENTED_EDGE ( 'NONE', *, *, #154, .F. ) ;
#81 = CARTESIAN_POINT ( 'NONE',  ( 3.000000000000000444, 3.673940397442060361E-16, 3.000000000000000000 ) ) ;
#82 = EDGE_CURVE ( 'NONE', #15, #237, #180, .T. ) ;
#83 = DIRECTION ( 'NONE',  ( 1.000000000000000000, 0.000000000000000000, 0.000000000000000000 ) ) ;
#84 = DIRECTION ( 'NONE',  ( 1.000000000000000000, 0.000000000000000000, 0.000000000000000000 ) ) ;
#85 = APPLICATION_CONTEXT ( 'configuration controlled 3d designs of mechanical parts and assemblies' ) ;
#86 = APPLICATION_PROTOCOL_DEFINITION ( 'international standard', 'config_control_design', 1994, #85 ) ;
#87 =( GEOMETRIC_REPRESENTATION_CONTEXT ( 3 ) GLOBAL_UNCERTAINTY_ASSIGNED_CONTEXT ( ( #269 ) ) GLOBAL_UNIT_ASSIGNED_CONTEXT ( ( #243, #196, #291 ) ) REPRESENTATION_CONTEXT ( 'NONE', 'WORKASPACE' ) );
#88 = PERSON_AND_ORGANIZATION ( #233, #262 ) ;
#89 = PERSON_AND_ORGANIZATION_ROLE ( 'classification_officer' ) ;
#90 = CC_DESIGN_PERSON_AND_ORGANIZATION_ASSIGNMENT ( #155, #135, ( #282 ) ) ;
#91 = PRODUCT_DEFINITION ( 'NEZNÁMÝ', '', #282, #174 ) ;
#92 = EDGE_LOOP ( 'NONE', ( #35, #264 ) ) ;
#93 = VECTOR ( 'NONE', #201, 1000.000000000000000 ) ;
#94 = EDGE_CURVE ( 'NONE', #37, #261, #185, .T. ) ;
#95 = ORIENTED_EDGE ( 'NONE', *, *, #195, .F. ) ;
#96 = FACE_OUTER_BOUND ( 'NONE', #143, .T. ) ;
#97 = CARTESIAN_POINT ( 'NONE',  ( -3.000000000000000444, 0.000000000000000000, 3.000000000000000000 ) ) ;
#98 = FACE_OUTER_BOUND ( 'NONE', #189, .T. ) ;
#99 = ORIENTED_EDGE ( 'NONE', *, *, #154, .T. ) ;
#100 = DIRECTION ( 'NONE',  ( -0.000000000000000000, -0.000000000000000000, -1.000000000000000000 ) ) ;
#101 = DIRECTION ( 'NONE',  ( -1.000000000000000000, 0.000000000000000000, 0.000000000000000000 ) ) ;
#102 = CARTESIAN_POINT ( 'NONE',  ( -1.500000000000000222, 0.000000000000000000, 633.0000000000000000 ) ) ;
#103 = DIRECTION ( 'NONE',  ( 0.000000000000000000, 0.000000000000000000, 1.000000000000000000 ) ) ;
#104 = DIRECTION ( 'NONE',  ( 1.000000000000000000, 0.000000000000000000, 0.000000000000000000 ) ) ;
#105 = PLANE ( 'NONE',  #161 ) ;
#106 = CALENDAR_DATE ( 2022, 20, 6 ) ;
#107 = MANIFOLD_SOLID_BREP ( 'Zaoblit1', #171 ) ;
#108 = CC_DESIGN_PERSON_AND_ORGANIZATION_ASSIGNMENT ( #254, #159, ( #282 ) ) ;
#109 = CARTESIAN_POINT ( 'NONE',  ( 0.000000000000000000, 0.000000000000000000, 3.199999999999980638 ) ) ;
#110 = LOCAL_TIME ( 12, 14, 21.00000000000000000, #1 ) ;
#111 = CALENDAR_DATE ( 2022, 20, 6 ) ;
#112 = MECHANICAL_CONTEXT ( 'NONE', #85, 'mechanical' ) ;
#113 = CIRCLE ( 'NONE', #263, 0.2000000000000000944 ) ;
#114 = ADVANCED_FACE ( 'NONE', ( #39, #223 ), #105, .T. ) ;
#115 = TOROIDAL_SURFACE ( 'NONE', #17, 1.700000000000000400, 0.2000000000000000111 ) ;
#116 = CARTESIAN_POINT ( 'NONE',  ( 0.000000000000000000, 0.000000000000000000, 633.0000000000000000 ) ) ;
#117 = ORIENTED_EDGE ( 'NONE', *, *, #260, .T. ) ;
#118 = CARTESIAN_POINT ( 'NONE',  ( 0.000000000000000000, 0.000000000000000000, 3.000000000000000000 ) ) ;
#119 = CC_DESIGN_APPROVAL ( #236, ( #3 ) ) ;
#120 = EDGE_LOOP ( 'NONE', ( #76, #59, #238, #138 ) ) ;
#121 = DIRECTION ( 'NONE',  ( 0.000000000000000000, 0.000000000000000000, 1.000000000000000000 ) ) ;
#122 = CARTESIAN_POINT ( 'NONE',  ( 0.000000000000000000, 0.000000000000000000, 3.000000000000000000 ) ) ;
#123 = CARTESIAN_POINT ( 'NONE',  ( -1.500000000000000222, 0.000000000000000000, 3.199999999999980638 ) ) ;
#124 = EDGE_CURVE ( 'NONE', #237, #15, #54, .T. ) ;
#125 = LINE ( 'NONE', #149, #306 ) ;
#126 = AXIS2_PLACEMENT_3D ( 'NONE', #133, #25, #47 ) ;
#127 = CARTESIAN_POINT ( 'NONE',  ( 0.000000000000000000, 0.000000000000000000, 3.000000000000000000 ) ) ;
#128 = CYLINDRICAL_SURFACE ( 'NONE', #207, 1.500000000000000222 ) ;
#129 = DIRECTION ( 'NONE',  ( 1.000000000000000000, 0.000000000000000000, 0.000000000000000000 ) ) ;
#130 = SHAPE_DEFINITION_REPRESENTATION ( #193, #12 ) ;
#131 = EDGE_CURVE ( 'NONE', #165, #261, #298, .T. ) ;
#132 = CARTESIAN_POINT ( 'NONE',  ( -1.700000000000000400, 2.081899558550500773E-16, 2.999999999999990674 ) ) ;
#133 = CARTESIAN_POINT ( 'NONE',  ( 0.000000000000000000, 0.000000000000000000, 0.000000000000000000 ) ) ;
#134 = VECTOR ( 'NONE', #245, 1000.000000000000000 ) ;
#135 = PERSON_AND_ORGANIZATION_ROLE ( 'design_supplier' ) ;
#136 = PERSON_AND_ORGANIZATION ( #233, #262 ) ;
#137 = APPROVAL_PERSON_ORGANIZATION ( #88, #30, #210 ) ;
#138 = ORIENTED_EDGE ( 'NONE', *, *, #301, .F. ) ;
#139 = PRODUCT ( 'ef44', 'ef44', '', ( #112 ) ) ;
#140 = ORIENTED_EDGE ( 'NONE', *, *, #183, .T. ) ;
#141 = EDGE_CURVE ( 'NONE', #286, #72, #285, .T. ) ;
#142 = DIRECTION ( 'NONE',  ( -1.000000000000000000, 0.000000000000000000, 0.000000000000000000 ) ) ;
#143 = EDGE_LOOP ( 'NONE', ( #170, #265, #57, #80 ) ) ;
#144 = DIRECTION ( 'NONE',  ( 0.000000000000000000, 0.000000000000000000, 1.000000000000000000 ) ) ;
#145 = CIRCLE ( 'NONE', #169, 1.500000000000000222 ) ;
#146 = EDGE_LOOP ( 'NONE', ( #73, #56 ) ) ;
#147 = DIRECTION ( 'NONE',  ( 0.000000000000000000, 0.000000000000000000, 1.000000000000000000 ) ) ;
#148 = ORIENTED_EDGE ( 'NONE', *, *, #307, .F. ) ;
#149 = CARTESIAN_POINT ( 'NONE',  ( -3.000000000000000444, 0.000000000000000000, 3.000000000000000000 ) ) ;
#150 = DIRECTION ( 'NONE',  ( 0.000000000000000000, 0.000000000000000000, 1.000000000000000000 ) ) ;
#151 = DIRECTION ( 'NONE',  ( 0.000000000000000000, -1.000000000000000000, 0.000000000000000000 ) ) ;
#152 = CIRCLE ( 'NONE', #280, 0.2000000000000000944 ) ;
#153 = DIRECTION ( 'NONE',  ( -0.000000000000000000, -0.000000000000000000, -1.000000000000000000 ) ) ;
#154 = EDGE_CURVE ( 'NONE', #237, #286, #152, .T. ) ;
#155 = PERSON_AND_ORGANIZATION ( #233, #262 ) ;
#156 = DIRECTION ( 'NONE',  ( 1.224646799147353207E-16, 1.000000000000000000, -0.000000000000000000 ) ) ;
#157 = COORDINATED_UNIVERSAL_TIME_OFFSET ( 1, 0, .AHEAD. ) ;
#158 = DATE_AND_TIME ( #49, #178 ) ;
#159 = PERSON_AND_ORGANIZATION_ROLE ( 'creator' ) ;
#160 = AXIS2_PLACEMENT_3D ( 'NONE', #4, #194, #101 ) ;
#161 = AXIS2_PLACEMENT_3D ( 'NONE', #18, #103, #251 ) ;
#162 = APPROVAL_DATE_TIME ( #158, #30 ) ;
#163 = AXIS2_PLACEMENT_3D ( 'NONE', #222, #203, #192 ) ;
#164 = ORIENTED_EDGE ( 'NONE', *, *, #211, .F. ) ;
#165 = VERTEX_POINT ( 'NONE', #175 ) ;
#166 = VERTEX_POINT ( 'NONE', #58 ) ;
#167 = CARTESIAN_POINT ( 'NONE',  ( 1.500000000000000222, 1.836970198721030181E-16, 3.199999999999980638 ) ) ;
#168 = FACE_OUTER_BOUND ( 'NONE', #28, .T. ) ;
#169 = AXIS2_PLACEMENT_3D ( 'NONE', #250, #300, #273 ) ;
#170 = ORIENTED_EDGE ( 'NONE', *, *, #82, .F. ) ;
#171 = CLOSED_SHELL ( 'NONE', ( #225, #271, #277, #74, #114, #2, #34, #71, #64 ) ) ;
#172 = DIRECTION ( 'NONE',  ( -1.000000000000000000, 0.000000000000000000, 0.000000000000000000 ) ) ;
#173 = ORIENTED_EDGE ( 'NONE', *, *, #82, .T. ) ;
#174 = DESIGN_CONTEXT ( 'detailed design', #26, 'design' ) ;
#175 = CARTESIAN_POINT ( 'NONE',  ( 3.000000000000000444, 3.673940397442060361E-16, 3.000000000000000000 ) ) ;
#176 = CARTESIAN_POINT ( 'NONE',  ( 0.000000000000000000, 0.000000000000000000, 633.0000000000000000 ) ) ;
#177 = CARTESIAN_POINT ( 'NONE',  ( 0.000000000000000000, 0.000000000000000000, 3.000000000000000000 ) ) ;
#178 = LOCAL_TIME ( 12, 14, 21.00000000000000000, #279 ) ;
#179 = CARTESIAN_POINT ( 'NONE',  ( -1.700000000000000400, 2.081899558550500773E-16, 3.199999999999980638 ) ) ;
#180 = CIRCLE ( 'NONE', #296, 1.500000000000000222 ) ;
#181 = COORDINATED_UNIVERSAL_TIME_OFFSET ( 1, 0, .AHEAD. ) ;
#182 = APPROVAL_ROLE ( '' ) ;
#183 = EDGE_CURVE ( 'NONE', #72, #286, #231, .T. ) ;
#184 = PERSON_AND_ORGANIZATION_ROLE ( 'creator' ) ;
#185 = CIRCLE ( 'NONE', #209, 3.000000000000000444 ) ;
#186 = DATE_TIME_ROLE ( 'creation_date' ) ;
#187 = AXIS2_PLACEMENT_3D ( 'NONE', #116, #200, #215 ) ;
#188 = CC_DESIGN_PERSON_AND_ORGANIZATION_ASSIGNMENT ( #303, #22, ( #139 ) ) ;
#189 = EDGE_LOOP ( 'NONE', ( #78, #297, #268, #216 ) ) ;
#190 = AXIS2_PLACEMENT_3D ( 'NONE', #294, #19, #104 ) ;
#191 = EDGE_LOOP ( 'NONE', ( #148, #95, #288, #173 ) ) ;
#192 = DIRECTION ( 'NONE',  ( 1.000000000000000000, 0.000000000000000000, 0.000000000000000000 ) ) ;
#193 = PRODUCT_DEFINITION_SHAPE ( 'NONE', 'NONE',  #91 ) ;
#194 = DIRECTION ( 'NONE',  ( -0.000000000000000000, -0.000000000000000000, -1.000000000000000000 ) ) ;
#195 = EDGE_CURVE ( 'NONE', #166, #7, #145, .T. ) ;
#196 =( NAMED_UNIT ( * ) PLANE_ANGLE_UNIT ( ) SI_UNIT ( $, .RADIAN. ) );
#197 = ORIENTED_EDGE ( 'NONE', *, *, #124, .F. ) ;
#198 = CIRCLE ( 'NONE', #46, 3.000000000000000444 ) ;
#199 = CARTESIAN_POINT ( 'NONE',  ( 0.000000000000000000, 0.000000000000000000, 3.000000000000000000 ) ) ;
#200 = DIRECTION ( 'NONE',  ( 0.000000000000000000, 0.000000000000000000, 1.000000000000000000 ) ) ;
#201 = DIRECTION ( 'NONE',  ( -0.000000000000000000, -0.000000000000000000, -1.000000000000000000 ) ) ;
#202 = PLANE ( 'NONE',  #234 ) ;
#203 = DIRECTION ( 'NONE',  ( 0.000000000000000000, 0.000000000000000000, 1.000000000000000000 ) ) ;
#204 = EDGE_CURVE ( 'NONE', #165, #33, #198, .T. ) ;
#205 = CARTESIAN_POINT ( 'NONE',  ( 0.000000000000000000, 0.000000000000000000, 3.199999999999980638 ) ) ;
#206 = CALENDAR_DATE ( 2022, 20, 6 ) ;
#207 = AXIS2_PLACEMENT_3D ( 'NONE', #226, #14, #142 ) ;
#208 = FACE_OUTER_BOUND ( 'NONE', #146, .T. ) ;
#209 = AXIS2_PLACEMENT_3D ( 'NONE', #228, #150, #248 ) ;
#210 = APPROVAL_ROLE ( '' ) ;
#211 = EDGE_CURVE ( 'NONE', #261, #37, #221, .T. ) ;
#212 = SECURITY_CLASSIFICATION_LEVEL ( 'unclassified' ) ;
#213 = APPLICATION_PROTOCOL_DEFINITION ( 'international standard', 'config_control_design', 1994, #26 ) ;
#214 = EDGE_CURVE ( 'NONE', #33, #165, #77, .T. ) ;
#215 = DIRECTION ( 'NONE',  ( 1.000000000000000000, 0.000000000000000000, 0.000000000000000000 ) ) ;
#216 = ORIENTED_EDGE ( 'NONE', *, *, #260, .F. ) ;
#217 = LOCAL_TIME ( 12, 14, 21.00000000000000000, #44 ) ;
#218 = DIRECTION ( 'NONE',  ( 1.000000000000000000, 0.000000000000000000, -0.000000000000000000 ) ) ;
#219 = FACE_OUTER_BOUND ( 'NONE', #191, .T. ) ;
#220 = CYLINDRICAL_SURFACE ( 'NONE', #160, 1.500000000000000222 ) ;
#221 = CIRCLE ( 'NONE', #190, 3.000000000000000444 ) ;
#222 = CARTESIAN_POINT ( 'NONE',  ( 0.000000000000000000, 0.000000000000000000, 3.199999999999980638 ) ) ;
#223 = FACE_OUTER_BOUND ( 'NONE', #92, .T. ) ;
#224 = AXIS2_PLACEMENT_3D ( 'NONE', #227, #42, #129 ) ;
#225 = ADVANCED_FACE ( 'NONE', ( #96 ), #27, .F. ) ;
#226 = CARTESIAN_POINT ( 'NONE',  ( 0.000000000000000000, 0.000000000000000000, 633.0000000000000000 ) ) ;
#227 = CARTESIAN_POINT ( 'NONE',  ( 0.000000000000000000, 0.000000000000000000, 3.199999999999980638 ) ) ;
#228 = CARTESIAN_POINT ( 'NONE',  ( 0.000000000000000000, 0.000000000000000000, 0.000000000000000000 ) ) ;
#229 = PERSON_AND_ORGANIZATION ( #233, #262 ) ;
#230 = DATE_AND_TIME ( #259, #110 ) ;
#231 = CIRCLE ( 'NONE', #40, 1.700000000000000400 ) ;
#232 = APPROVAL_PERSON_ORGANIZATION ( #229, #249, #182 ) ;
#233 = PERSON ( 'NEURÈENÝ', 'NEURÈENÝ', 'NEURÈENÝ', ('NEURÈENÝ'), ('NEURÈENÝ'), ('NEURÈENÝ') ) ;
#234 = AXIS2_PLACEMENT_3D ( 'NONE', #176, #276, #253 ) ;
#235 = AXIS2_PLACEMENT_3D ( 'NONE', #199, #62, #60 ) ;
#236 = APPROVAL ( #252, 'NEURÈENÝ' ) ;
#237 = VERTEX_POINT ( 'NONE', #167 ) ;
#238 = ORIENTED_EDGE ( 'NONE', *, *, #124, .T. ) ;
#239 = ORIENTED_EDGE ( 'NONE', *, *, #214, .F. ) ;
#240 = PRODUCT_RELATED_PRODUCT_CATEGORY ( 'detail', '', ( #139 ) ) ;
#241 = CYLINDRICAL_SURFACE ( 'NONE', #5, 3.000000000000000444 ) ;
#242 = ORIENTED_EDGE ( 'NONE', *, *, #141, .T. ) ;
#243 =( LENGTH_UNIT ( ) NAMED_UNIT ( * ) SI_UNIT ( .MILLI., .METRE. ) );
#244 = ORIENTED_EDGE ( 'NONE', *, *, #183, .F. ) ;
#245 = DIRECTION ( 'NONE',  ( -0.000000000000000000, -0.000000000000000000, -1.000000000000000000 ) ) ;
#246 = CARTESIAN_POINT ( 'NONE',  ( 0.000000000000000000, 0.000000000000000000, 0.000000000000000000 ) ) ;
#247 = LINE ( 'NONE', #102, #255 ) ;
#248 = DIRECTION ( 'NONE',  ( 1.000000000000000000, 0.000000000000000000, 0.000000000000000000 ) ) ;
#249 = APPROVAL ( #65, 'NEURÈENÝ' ) ;
#250 = CARTESIAN_POINT ( 'NONE',  ( 0.000000000000000000, 0.000000000000000000, 633.0000000000000000 ) ) ;
#251 = DIRECTION ( 'NONE',  ( 1.000000000000000000, 0.000000000000000000, -0.000000000000000000 ) ) ;
#252 = APPROVAL_STATUS ( 'not_yet_approved' ) ;
#253 = DIRECTION ( 'NONE',  ( 1.000000000000000000, 0.000000000000000000, -0.000000000000000000 ) ) ;
#254 = PERSON_AND_ORGANIZATION ( #233, #262 ) ;
#255 = VECTOR ( 'NONE', #270, 1000.000000000000000 ) ;
#256 = AXIS2_PLACEMENT_3D ( 'NONE', #246, #121, #218 ) ;
#257 = AXIS2_PLACEMENT_3D ( 'NONE', #127, #153, #274 ) ;
#258 = DATE_TIME_ROLE ( 'classification_date' ) ;
#259 = CALENDAR_DATE ( 2022, 20, 6 ) ;
#260 = EDGE_CURVE ( 'NONE', #33, #37, #125, .T. ) ;
#261 = VERTEX_POINT ( 'NONE', #79 ) ;
#262 = ORGANIZATION ( 'NEURÈENÝ', 'NEURÈENÝ', '' ) ;
#263 = AXIS2_PLACEMENT_3D ( 'NONE', #179, #156, #23 ) ;
#264 = ORIENTED_EDGE ( 'NONE', *, *, #204, .T. ) ;
#265 = ORIENTED_EDGE ( 'NONE', *, *, #51, .T. ) ;
#266 = CARTESIAN_POINT ( 'NONE',  ( 1.500000000000000222, 1.836970198721030181E-16, 633.0000000000000000 ) ) ;
#267 = PLANE ( 'NONE',  #256 ) ;
#268 = ORIENTED_EDGE ( 'NONE', *, *, #211, .T. ) ;
#269 = UNCERTAINTY_MEASURE_WITH_UNIT (LENGTH_MEASURE( 1.000000000000000082E-05 ), #243, 'distance_accuracy_value', 'NONE');
#270 = DIRECTION ( 'NONE',  ( -0.000000000000000000, -0.000000000000000000, -1.000000000000000000 ) ) ;
#271 = ADVANCED_FACE ( 'NONE', ( #16 ), #128, .T. ) ;
#272 = CARTESIAN_POINT ( 'NONE',  ( -3.000000000000000444, 0.000000000000000000, 0.000000000000000000 ) ) ;
#273 = DIRECTION ( 'NONE',  ( 1.000000000000000000, 0.000000000000000000, 0.000000000000000000 ) ) ;
#274 = DIRECTION ( 'NONE',  ( -1.000000000000000000, 0.000000000000000000, 0.000000000000000000 ) ) ;
#275 = DIRECTION ( 'NONE',  ( -0.000000000000000000, -0.000000000000000000, -1.000000000000000000 ) ) ;
#276 = DIRECTION ( 'NONE',  ( 0.000000000000000000, 0.000000000000000000, 1.000000000000000000 ) ) ;
#277 = ADVANCED_FACE ( 'NONE', ( #98 ), #241, .T. ) ;
#278 = DATE_AND_TIME ( #206, #217 ) ;
#279 = COORDINATED_UNIVERSAL_TIME_OFFSET ( 1, 0, .AHEAD. ) ;
#280 = AXIS2_PLACEMENT_3D ( 'NONE', #41, #151, #38 ) ;
#281 = DATE_AND_TIME ( #106, #8 ) ;
#282 = PRODUCT_DEFINITION_FORMATION_WITH_SPECIFIED_SOURCE ( 'LIBOVOLNÝ', '', #139, .NOT_KNOWN. ) ;
#283 = LOCAL_TIME ( 12, 14, 21.00000000000000000, #157 ) ;
#284 = CC_DESIGN_DATE_AND_TIME_ASSIGNMENT ( #230, #186, ( #91 ) ) ;
#285 = CIRCLE ( 'NONE', #235, 1.700000000000000400 ) ;
#286 = VERTEX_POINT ( 'NONE', #289 ) ;
#287 = CC_DESIGN_DATE_AND_TIME_ASSIGNMENT ( #281, #258, ( #3 ) ) ;
#288 = ORIENTED_EDGE ( 'NONE', *, *, #301, .T. ) ;
#289 = CARTESIAN_POINT ( 'NONE',  ( 1.700000000000000400, 0.000000000000000000, 2.999999999999990674 ) ) ;
#290 = ORIENTED_EDGE ( 'NONE', *, *, #131, .F. ) ;
#291 =( NAMED_UNIT ( * ) SI_UNIT ( $, .STERADIAN. ) SOLID_ANGLE_UNIT ( ) );
#292 = EDGE_LOOP ( 'NONE', ( #290, #239, #117, #13 ) ) ;
#293 = CC_DESIGN_PERSON_AND_ORGANIZATION_ASSIGNMENT ( #305, #89, ( #3 ) ) ;
#294 = CARTESIAN_POINT ( 'NONE',  ( 0.000000000000000000, 0.000000000000000000, 0.000000000000000000 ) ) ;
#295 = CIRCLE ( 'NONE', #187, 1.500000000000000222 ) ;
#296 = AXIS2_PLACEMENT_3D ( 'NONE', #205, #302, #63 ) ;
#297 = ORIENTED_EDGE ( 'NONE', *, *, #131, .T. ) ;
#298 = LINE ( 'NONE', #81, #134 ) ;
#299 = DIRECTION ( 'NONE',  ( 0.000000000000000000, 0.000000000000000000, 1.000000000000000000 ) ) ;
#300 = DIRECTION ( 'NONE',  ( 0.000000000000000000, 0.000000000000000000, 1.000000000000000000 ) ) ;
#301 = EDGE_CURVE ( 'NONE', #166, #15, #247, .T. ) ;
#302 = DIRECTION ( 'NONE',  ( 0.000000000000000000, 0.000000000000000000, 1.000000000000000000 ) ) ;
#303 = PERSON_AND_ORGANIZATION ( #233, #262 ) ;
#304 = PERSON_AND_ORGANIZATION ( #233, #262 ) ;
#305 = PERSON_AND_ORGANIZATION ( #233, #262 ) ;
#306 = VECTOR ( 'NONE', #275, 1000.000000000000000 ) ;
#307 = EDGE_CURVE ( 'NONE', #7, #237, #75, .T. ) ;
ENDSEC;
END-ISO-10303-21;
