ISO-10303-21;
HEADER;
FILE_DESCRIPTION (( 'STEP AP203' ),
    '1' );
FILE_NAME ('296d.STEP',
    '2022-06-20T09:49:24',
    ( '' ),
    ( '' ),
    'SwSTEP 2.0',
    'SolidWorks 2019',
    '' );
FILE_SCHEMA (( 'CONFIG_CONTROL_DESIGN' ));
ENDSEC;

DATA;
#1 = CARTESIAN_POINT ( 'NONE',  ( -4.000000000000000000, 0.000000000000000000, 5.200000000000009948 ) ) ;
#2 = DIRECTION ( 'NONE',  ( -0.000000000000000000, -0.000000000000000000, -1.000000000000000000 ) ) ;
#3 = DIRECTION ( 'NONE',  ( 0.000000000000000000, 0.000000000000000000, 1.000000000000000000 ) ) ;
#4 = FACE_OUTER_BOUND ( 'NONE', #11, .T. ) ;
#5 = CC_DESIGN_SECURITY_CLASSIFICATION ( #233, ( #14 ) ) ;
#6 = ADVANCED_FACE ( 'NONE', ( #45 ), #40, .T. ) ;
#7 = COORDINATED_UNIVERSAL_TIME_OFFSET ( 1, 0, .AHEAD. ) ;
#8 = APPROVAL_STATUS ( 'not_yet_approved' ) ;
#9 = DATE_AND_TIME ( #176, #95 ) ;
#10 = EDGE_LOOP ( 'NONE', ( #296, #257 ) ) ;
#11 = EDGE_LOOP ( 'NONE', ( #184, #98, #199, #102 ) ) ;
#12 =( NAMED_UNIT ( * ) SI_UNIT ( $, .STERADIAN. ) SOLID_ANGLE_UNIT ( ) );
#13 = DIRECTION ( 'NONE',  ( 0.000000000000000000, 0.000000000000000000, 1.000000000000000000 ) ) ;
#14 = PRODUCT_DEFINITION_FORMATION_WITH_SPECIFIED_SOURCE ( 'LIBOVOLNÝ', '', #287, .NOT_KNOWN. ) ;
#15 = PRODUCT_RELATED_PRODUCT_CATEGORY ( 'detail', '', ( #287 ) ) ;
#16 = EDGE_LOOP ( 'NONE', ( #76, #84, #151, #249 ) ) ;
#17 = DIRECTION ( 'NONE',  ( 0.000000000000000000, 0.000000000000000000, -1.000000000000000000 ) ) ;
#18 = CARTESIAN_POINT ( 'NONE',  ( 0.000000000000000000, 0.000000000000000000, 165.0000000000000000 ) ) ;
#19 = EDGE_CURVE ( 'NONE', #32, #210, #220, .T. ) ;
#20 = ORIENTED_EDGE ( 'NONE', *, *, #19, .F. ) ;
#21 = DIRECTION ( 'NONE',  ( 1.000000000000000000, 0.000000000000000000, 0.000000000000000000 ) ) ;
#22 = PLANE ( 'NONE',  #69 ) ;
#23 = AXIS2_PLACEMENT_3D ( 'NONE', #94, #142, #71 ) ;
#24 = DIRECTION ( 'NONE',  ( -0.000000000000000000, -0.000000000000000000, -1.000000000000000000 ) ) ;
#25 = AXIS2_PLACEMENT_3D ( 'NONE', #269, #48, #21 ) ;
#26 = DIRECTION ( 'NONE',  ( 0.000000000000000000, 0.000000000000000000, 1.000000000000000000 ) ) ;
#27 = EDGE_CURVE ( 'NONE', #124, #79, #60, .T. ) ;
#28 = SECURITY_CLASSIFICATION_LEVEL ( 'unclassified' ) ;
#29 = APPROVAL_DATE_TIME ( #248, #192 ) ;
#30 = ORIENTED_EDGE ( 'NONE', *, *, #243, .T. ) ;
#31 =( NAMED_UNIT ( * ) PLANE_ANGLE_UNIT ( ) SI_UNIT ( $, .RADIAN. ) );
#32 = VERTEX_POINT ( 'NONE', #182 ) ;
#33 = PERSON_AND_ORGANIZATION ( #241, #157 ) ;
#34 = AXIS2_PLACEMENT_3D ( 'NONE', #252, #122, #300 ) ;
#35 = PERSON_AND_ORGANIZATION ( #241, #157 ) ;
#36 = CC_DESIGN_PERSON_AND_ORGANIZATION_ASSIGNMENT ( #144, #254, ( #14 ) ) ;
#37 = CARTESIAN_POINT ( 'NONE',  ( 4.200000000000000178, 0.000000000000000000, 5.000000000000005329 ) ) ;
#38 = CIRCLE ( 'NONE', #23, 4.000000000000000000 ) ;
#39 = CC_DESIGN_APPROVAL ( #192, ( #233 ) ) ;
#40 = CYLINDRICAL_SURFACE ( 'NONE', #271, 4.000000000000000000 ) ;
#41 = EDGE_CURVE ( 'NONE', #195, #210, #106, .T. ) ;
#42 = CARTESIAN_POINT ( 'NONE',  ( -7.000000000000000000, 0.000000000000000000, 5.000000000000000000 ) ) ;
#43 = CARTESIAN_POINT ( 'NONE',  ( 0.000000000000000000, 0.000000000000000000, 165.0000000000000000 ) ) ;
#44 = AXIS2_PLACEMENT_3D ( 'NONE', #270, #52, #70 ) ;
#45 = FACE_OUTER_BOUND ( 'NONE', #73, .T. ) ;
#46 = DIRECTION ( 'NONE',  ( 1.000000000000000000, 0.000000000000000000, 0.000000000000000000 ) ) ;
#47 = CARTESIAN_POINT ( 'NONE',  ( 0.000000000000000000, 0.000000000000000000, 0.000000000000000000 ) ) ;
#48 = DIRECTION ( 'NONE',  ( 0.000000000000000000, 0.000000000000000000, 1.000000000000000000 ) ) ;
#49 = LOCAL_TIME ( 11, 49, 24.00000000000000000, #174 ) ;
#50 = ADVANCED_FACE ( 'NONE', ( #64 ), #63, .T. ) ;
#51 = AXIS2_PLACEMENT_3D ( 'NONE', #138, #301, #87 ) ;
#52 = DIRECTION ( 'NONE',  ( -0.000000000000000000, -0.000000000000000000, -1.000000000000000000 ) ) ;
#53 = COORDINATED_UNIVERSAL_TIME_OFFSET ( 1, 0, .AHEAD. ) ;
#54 = EDGE_LOOP ( 'NONE', ( #229, #258, #74, #159 ) ) ;
#55 = LOCAL_TIME ( 11, 49, 24.00000000000000000, #294 ) ;
#56 = DATE_AND_TIME ( #126, #225 ) ;
#57 = PERSON_AND_ORGANIZATION ( #241, #157 ) ;
#58 = DATE_AND_TIME ( #227, #55 ) ;
#59 = CARTESIAN_POINT ( 'NONE',  ( 0.000000000000000000, 0.000000000000000000, 5.000000000000000000 ) ) ;
#60 = CIRCLE ( 'NONE', #78, 0.1999999999999996503 ) ;
#61 = ORIENTED_EDGE ( 'NONE', *, *, #285, .F. ) ;
#62 = APPROVAL_PERSON_ORGANIZATION ( #205, #135, #129 ) ;
#63 = CYLINDRICAL_SURFACE ( 'NONE', #51, 7.000000000000000000 ) ;
#64 = FACE_OUTER_BOUND ( 'NONE', #54, .T. ) ;
#65 = FACE_BOUND ( 'NONE', #10, .T. ) ;
#66 = CARTESIAN_POINT ( 'NONE',  ( -4.000000000000000000, 0.000000000000000000, 165.0000000000000000 ) ) ;
#67 = CARTESIAN_POINT ( 'NONE',  ( -4.200000000000000178, 5.143516556418882928E-16, 5.000000000000005329 ) ) ;
#68 = CARTESIAN_POINT ( 'NONE',  ( 0.000000000000000000, 0.000000000000000000, 5.000000000000000000 ) ) ;
#69 = AXIS2_PLACEMENT_3D ( 'NONE', #139, #118, #166 ) ;
#70 = DIRECTION ( 'NONE',  ( -1.000000000000000000, 0.000000000000000000, 0.000000000000000000 ) ) ;
#71 = DIRECTION ( 'NONE',  ( 1.000000000000000000, 0.000000000000000000, 0.000000000000000000 ) ) ;
#72 = APPROVAL_STATUS ( 'not_yet_approved' ) ;
#73 = EDGE_LOOP ( 'NONE', ( #61, #130, #175, #112 ) ) ;
#74 = ORIENTED_EDGE ( 'NONE', *, *, #41, .T. ) ;
#75 = PERSON_AND_ORGANIZATION_ROLE ( 'creator' ) ;
#76 = ORIENTED_EDGE ( 'NONE', *, *, #243, .F. ) ;
#77 = PERSON_AND_ORGANIZATION ( #241, #157 ) ;
#78 = AXIS2_PLACEMENT_3D ( 'NONE', #236, #132, #17 ) ;
#79 = VERTEX_POINT ( 'NONE', #37 ) ;
#80 = EDGE_CURVE ( 'NONE', #277, #177, #209, .T. ) ;
#81 = APPLICATION_PROTOCOL_DEFINITION ( 'international standard', 'config_control_design', 1994, #279 ) ;
#82 = ORIENTED_EDGE ( 'NONE', *, *, #212, .F. ) ;
#83 = AXIS2_PLACEMENT_3D ( 'NONE', #68, #96, #140 ) ;
#84 = ORIENTED_EDGE ( 'NONE', *, *, #285, .T. ) ;
#85 = CARTESIAN_POINT ( 'NONE',  ( 0.000000000000000000, 0.000000000000000000, 5.000000000000000000 ) ) ;
#86 = AXIS2_PLACEMENT_3D ( 'NONE', #85, #186, #89 ) ;
#87 = DIRECTION ( 'NONE',  ( -1.000000000000000000, 0.000000000000000000, 0.000000000000000000 ) ) ;
#88 = DIRECTION ( 'NONE',  ( 0.000000000000000000, 0.000000000000000000, 1.000000000000000000 ) ) ;
#89 = DIRECTION ( 'NONE',  ( 1.000000000000000000, 0.000000000000000000, 0.000000000000000000 ) ) ;
#90 = CYLINDRICAL_SURFACE ( 'NONE', #44, 7.000000000000000000 ) ;
#91 = APPROVAL_PERSON_ORGANIZATION ( #295, #221, #150 ) ;
#92 = DIRECTION ( 'NONE',  ( -1.000000000000000000, 0.000000000000000000, 0.000000000000000000 ) ) ;
#93 = CARTESIAN_POINT ( 'NONE',  ( 4.000000000000000000, 4.898587196589412829E-16, 165.0000000000000000 ) ) ;
#94 = CARTESIAN_POINT ( 'NONE',  ( 0.000000000000000000, 0.000000000000000000, 5.200000000000009948 ) ) ;
#95 = LOCAL_TIME ( 11, 49, 24.00000000000000000, #203 ) ;
#96 = DIRECTION ( 'NONE',  ( -0.000000000000000000, -0.000000000000000000, -1.000000000000000000 ) ) ;
#97 = DATE_TIME_ROLE ( 'classification_date' ) ;
#98 = ORIENTED_EDGE ( 'NONE', *, *, #208, .T. ) ;
#99 =( LENGTH_UNIT ( ) NAMED_UNIT ( * ) SI_UNIT ( .MILLI., .METRE. ) );
#100 = ORIENTED_EDGE ( 'NONE', *, *, #145, .T. ) ;
#101 = UNCERTAINTY_MEASURE_WITH_UNIT (LENGTH_MEASURE( 1.000000000000000082E-05 ), #99, 'distance_accuracy_value', 'NONE');
#102 = ORIENTED_EDGE ( 'NONE', *, *, #41, .F. ) ;
#103 = ADVANCED_FACE ( 'NONE', ( #65, #133 ), #261, .T. ) ;
#104 = CC_DESIGN_PERSON_AND_ORGANIZATION_ASSIGNMENT ( #57, #153, ( #233 ) ) ;
#105 = ORIENTED_EDGE ( 'NONE', *, *, #146, .F. ) ;
#106 = LINE ( 'NONE', #42, #290 ) ;
#107 = DIRECTION ( 'NONE',  ( 1.000000000000000000, 0.000000000000000000, 0.000000000000000000 ) ) ;
#108 = ORIENTED_EDGE ( 'NONE', *, *, #273, .F. ) ;
#109 = AXIS2_PLACEMENT_3D ( 'NONE', #305, #13, #281 ) ;
#110 = DIRECTION ( 'NONE',  ( 0.000000000000000000, 0.000000000000000000, 1.000000000000000000 ) ) ;
#111 = CIRCLE ( 'NONE', #259, 0.1999999999999996503 ) ;
#112 = ORIENTED_EDGE ( 'NONE', *, *, #207, .T. ) ;
#113 = EDGE_CURVE ( 'NONE', #277, #181, #246, .T. ) ;
#114 = CC_DESIGN_PERSON_AND_ORGANIZATION_ASSIGNMENT ( #77, #226, ( #14 ) ) ;
#115 = CARTESIAN_POINT ( 'NONE',  ( -4.200000000000000178, 5.143516556418882928E-16, 5.200000000000009948 ) ) ;
#116 = FACE_OUTER_BOUND ( 'NONE', #16, .T. ) ;
#117 = CC_DESIGN_DATE_AND_TIME_ASSIGNMENT ( #9, #276, ( #185 ) ) ;
#118 = DIRECTION ( 'NONE',  ( 0.000000000000000000, 0.000000000000000000, 1.000000000000000000 ) ) ;
#119 = CARTESIAN_POINT ( 'NONE',  ( 0.000000000000000000, 0.000000000000000000, 5.200000000000009948 ) ) ;
#120 = MANIFOLD_SOLID_BREP ( 'Zaoblit1', #125 ) ;
#121 = APPROVAL_PERSON_ORGANIZATION ( #35, #192, #272 ) ;
#122 = DIRECTION ( 'NONE',  ( 0.000000000000000000, 0.000000000000000000, 1.000000000000000000 ) ) ;
#123 = EDGE_CURVE ( 'NONE', #195, #158, #143, .T. ) ;
#124 = VERTEX_POINT ( 'NONE', #213 ) ;
#125 = CLOSED_SHELL ( 'NONE', ( #306, #278, #222, #50, #103, #231, #6, #136, #171 ) ) ;
#126 = CALENDAR_DATE ( 2022, 20, 6 ) ;
#127 = TOROIDAL_SURFACE ( 'NONE', #288, 4.200000000000000178, 0.2000000000000000111 ) ;
#128 = AXIS2_PLACEMENT_3D ( 'NONE', #268, #2, #92 ) ;
#129 = APPROVAL_ROLE ( '' ) ;
#130 = ORIENTED_EDGE ( 'NONE', *, *, #113, .F. ) ;
#131 = DIRECTION ( 'NONE',  ( 1.000000000000000000, 0.000000000000000000, 0.000000000000000000 ) ) ;
#132 = DIRECTION ( 'NONE',  ( 0.000000000000000000, -1.000000000000000000, 0.000000000000000000 ) ) ;
#133 = FACE_OUTER_BOUND ( 'NONE', #238, .T. ) ;
#134 = EDGE_LOOP ( 'NONE', ( #202, #154, #304, #253 ) ) ;
#135 = APPROVAL ( #179, 'NEURÈENÝ' ) ;
#136 = ADVANCED_FACE ( 'NONE', ( #265 ), #262, .T. ) ;
#137 = VECTOR ( 'NONE', #24, 1000.000000000000000 ) ;
#138 = CARTESIAN_POINT ( 'NONE',  ( 0.000000000000000000, 0.000000000000000000, 5.000000000000000000 ) ) ;
#139 = CARTESIAN_POINT ( 'NONE',  ( 0.000000000000000000, 0.000000000000000000, 0.000000000000000000 ) ) ;
#140 = DIRECTION ( 'NONE',  ( 1.000000000000000000, 0.000000000000000000, 0.000000000000000000 ) ) ;
#141 = AXIS2_PLACEMENT_3D ( 'NONE', #47, #216, #194 ) ;
#142 = DIRECTION ( 'NONE',  ( 0.000000000000000000, 0.000000000000000000, 1.000000000000000000 ) ) ;
#143 = CIRCLE ( 'NONE', #86, 7.000000000000000000 ) ;
#144 = PERSON_AND_ORGANIZATION ( #241, #157 ) ;
#145 = EDGE_CURVE ( 'NONE', #158, #195, #267, .T. ) ;
#146 = EDGE_CURVE ( 'NONE', #178, #79, #167, .T. ) ;
#147 = AXIS2_PLACEMENT_3D ( 'NONE', #168, #26, #188 ) ;
#148 = CALENDAR_DATE ( 2022, 20, 6 ) ;
#149 = EDGE_LOOP ( 'NONE', ( #211, #30 ) ) ;
#150 = APPROVAL_ROLE ( '' ) ;
#151 = ORIENTED_EDGE ( 'NONE', *, *, #266, .T. ) ;
#152 = ADVANCED_BREP_SHAPE_REPRESENTATION ( '296d', ( #120, #34 ), #191 ) ;
#153 = PERSON_AND_ORGANIZATION_ROLE ( 'classification_officer' ) ;
#154 = ORIENTED_EDGE ( 'NONE', *, *, #273, .T. ) ;
#155 = PRODUCT_DEFINITION_SHAPE ( 'NONE', 'NONE',  #185 ) ;
#156 = CALENDAR_DATE ( 2022, 20, 6 ) ;
#157 = ORGANIZATION ( 'NEURÈENÝ', 'NEURÈENÝ', '' ) ;
#158 = VERTEX_POINT ( 'NONE', #302 ) ;
#159 = ORIENTED_EDGE ( 'NONE', *, *, #212, .T. ) ;
#160 = TOROIDAL_SURFACE ( 'NONE', #200, 4.200000000000000178, 0.2000000000000000111 ) ;
#161 = DIRECTION ( 'NONE',  ( -0.000000000000000000, -0.000000000000000000, -1.000000000000000000 ) ) ;
#162 = DIRECTION ( 'NONE',  ( 1.000000000000000000, 0.000000000000000000, 0.000000000000000000 ) ) ;
#163 = AXIS2_PLACEMENT_3D ( 'NONE', #307, #88, #164 ) ;
#164 = DIRECTION ( 'NONE',  ( 1.000000000000000000, 0.000000000000000000, -0.000000000000000000 ) ) ;
#165 = FACE_OUTER_BOUND ( 'NONE', #172, .T. ) ;
#166 = DIRECTION ( 'NONE',  ( 1.000000000000000000, 0.000000000000000000, -0.000000000000000000 ) ) ;
#167 = CIRCLE ( 'NONE', #173, 4.200000000000000178 ) ;
#168 = CARTESIAN_POINT ( 'NONE',  ( 0.000000000000000000, 0.000000000000000000, 165.0000000000000000 ) ) ;
#169 = DIRECTION ( 'NONE',  ( -1.000000000000000000, 1.224646799147353454E-16, 0.000000000000000000 ) ) ;
#170 = CARTESIAN_POINT ( 'NONE',  ( 7.000000000000000000, 8.572527594031473190E-16, 5.000000000000000000 ) ) ;
#171 = ADVANCED_FACE ( 'NONE', ( #292 ), #127, .F. ) ;
#172 = EDGE_LOOP ( 'NONE', ( #82, #20 ) ) ;
#173 = AXIS2_PLACEMENT_3D ( 'NONE', #187, #286, #107 ) ;
#174 = COORDINATED_UNIVERSAL_TIME_OFFSET ( 1, 0, .AHEAD. ) ;
#175 = ORIENTED_EDGE ( 'NONE', *, *, #80, .T. ) ;
#176 = CALENDAR_DATE ( 2022, 20, 6 ) ;
#177 = VERTEX_POINT ( 'NONE', #1 ) ;
#178 = VERTEX_POINT ( 'NONE', #67 ) ;
#179 = APPROVAL_STATUS ( 'not_yet_approved' ) ;
#180 = CIRCLE ( 'NONE', #141, 7.000000000000000000 ) ;
#181 = VERTEX_POINT ( 'NONE', #93 ) ;
#182 = CARTESIAN_POINT ( 'NONE',  ( 7.000000000000000000, 8.572527594031473190E-16, 0.000000000000000000 ) ) ;
#183 = DIRECTION ( 'NONE',  ( 0.000000000000000000, 0.000000000000000000, 1.000000000000000000 ) ) ;
#184 = ORIENTED_EDGE ( 'NONE', *, *, #145, .F. ) ;
#185 = PRODUCT_DEFINITION ( 'NEZNÁMÝ', '', #14, #197 ) ;
#186 = DIRECTION ( 'NONE',  ( 0.000000000000000000, 0.000000000000000000, 1.000000000000000000 ) ) ;
#187 = CARTESIAN_POINT ( 'NONE',  ( 0.000000000000000000, 0.000000000000000000, 5.000000000000000000 ) ) ;
#188 = DIRECTION ( 'NONE',  ( 1.000000000000000000, 0.000000000000000000, 0.000000000000000000 ) ) ;
#189 = LINE ( 'NONE', #242, #137 ) ;
#190 = CARTESIAN_POINT ( 'NONE',  ( -7.000000000000000000, 0.000000000000000000, 0.000000000000000000 ) ) ;
#191 =( GEOMETRIC_REPRESENTATION_CONTEXT ( 3 ) GLOBAL_UNCERTAINTY_ASSIGNED_CONTEXT ( ( #101 ) ) GLOBAL_UNIT_ASSIGNED_CONTEXT ( ( #99, #31, #12 ) ) REPRESENTATION_CONTEXT ( 'NONE', 'WORKASPACE' ) );
#192 = APPROVAL ( #72, 'NEURÈENÝ' ) ;
#193 = CC_DESIGN_PERSON_AND_ORGANIZATION_ASSIGNMENT ( #250, #228, ( #287 ) ) ;
#194 = DIRECTION ( 'NONE',  ( 1.000000000000000000, 0.000000000000000000, 0.000000000000000000 ) ) ;
#195 = VERTEX_POINT ( 'NONE', #219 ) ;
#196 = AXIS2_PLACEMENT_3D ( 'NONE', #260, #234, #237 ) ;
#197 = DESIGN_CONTEXT ( 'detailed design', #279, 'design' ) ;
#198 = SHAPE_DEFINITION_REPRESENTATION ( #155, #152 ) ;
#199 = ORIENTED_EDGE ( 'NONE', *, *, #19, .T. ) ;
#200 = AXIS2_PLACEMENT_3D ( 'NONE', #119, #3, #245 ) ;
#201 = MECHANICAL_CONTEXT ( 'NONE', #263, 'mechanical' ) ;
#202 = ORIENTED_EDGE ( 'NONE', *, *, #207, .F. ) ;
#203 = COORDINATED_UNIVERSAL_TIME_OFFSET ( 1, 0, .AHEAD. ) ;
#204 = ORIENTED_EDGE ( 'NONE', *, *, #266, .F. ) ;
#205 = PERSON_AND_ORGANIZATION ( #241, #157 ) ;
#206 = EDGE_LOOP ( 'NONE', ( #108, #204, #299, #105 ) ) ;
#207 = EDGE_CURVE ( 'NONE', #177, #124, #38, .T. ) ;
#208 = EDGE_CURVE ( 'NONE', #158, #32, #291, .T. ) ;
#209 = LINE ( 'NONE', #283, #239 ) ;
#210 = VERTEX_POINT ( 'NONE', #190 ) ;
#211 = ORIENTED_EDGE ( 'NONE', *, *, #113, .T. ) ;
#212 = EDGE_CURVE ( 'NONE', #210, #32, #180, .T. ) ;
#213 = CARTESIAN_POINT ( 'NONE',  ( 4.000000000000000000, 4.898587196589412829E-16, 5.200000000000009948 ) ) ;
#214 = VECTOR ( 'NONE', #223, 1000.000000000000000 ) ;
#215 = DIRECTION ( 'NONE',  ( -1.000000000000000000, 0.000000000000000000, 0.000000000000000000 ) ) ;
#216 = DIRECTION ( 'NONE',  ( 0.000000000000000000, 0.000000000000000000, 1.000000000000000000 ) ) ;
#217 = CYLINDRICAL_SURFACE ( 'NONE', #128, 4.000000000000000000 ) ;
#218 = DIRECTION ( 'NONE',  ( 1.224646799147353207E-16, 1.000000000000000000, -0.000000000000000000 ) ) ;
#219 = CARTESIAN_POINT ( 'NONE',  ( -7.000000000000000000, 0.000000000000000000, 5.000000000000000000 ) ) ;
#220 = CIRCLE ( 'NONE', #196, 7.000000000000000000 ) ;
#221 = APPROVAL ( #8, 'NEURÈENÝ' ) ;
#222 = ADVANCED_FACE ( 'NONE', ( #4 ), #90, .T. ) ;
#223 = DIRECTION ( 'NONE',  ( -0.000000000000000000, -0.000000000000000000, -1.000000000000000000 ) ) ;
#224 = CIRCLE ( 'NONE', #83, 4.200000000000000178 ) ;
#225 = LOCAL_TIME ( 11, 49, 24.00000000000000000, #7 ) ;
#226 = PERSON_AND_ORGANIZATION_ROLE ( 'creator' ) ;
#227 = CALENDAR_DATE ( 2022, 20, 6 ) ;
#228 = PERSON_AND_ORGANIZATION_ROLE ( 'design_owner' ) ;
#229 = ORIENTED_EDGE ( 'NONE', *, *, #208, .F. ) ;
#230 = CC_DESIGN_APPROVAL ( #221, ( #185 ) ) ;
#231 = ADVANCED_FACE ( 'NONE', ( #165 ), #22, .F. ) ;
#232 = CC_DESIGN_PERSON_AND_ORGANIZATION_ASSIGNMENT ( #33, #75, ( #185 ) ) ;
#233 = SECURITY_CLASSIFICATION ( '', '', #28 ) ;
#234 = DIRECTION ( 'NONE',  ( 0.000000000000000000, 0.000000000000000000, 1.000000000000000000 ) ) ;
#235 = EDGE_CURVE ( 'NONE', #79, #178, #224, .T. ) ;
#236 = CARTESIAN_POINT ( 'NONE',  ( 4.200000000000000178, 0.000000000000000000, 5.200000000000009948 ) ) ;
#237 = DIRECTION ( 'NONE',  ( 1.000000000000000000, 0.000000000000000000, 0.000000000000000000 ) ) ;
#238 = EDGE_LOOP ( 'NONE', ( #256, #100 ) ) ;
#239 = VECTOR ( 'NONE', #282, 1000.000000000000000 ) ;
#240 = DIRECTION ( 'NONE',  ( 0.000000000000000000, 0.000000000000000000, 1.000000000000000000 ) ) ;
#241 = PERSON ( 'NEURÈENÝ', 'NEURÈENÝ', 'NEURÈENÝ', ('NEURÈENÝ'), ('NEURÈENÝ'), ('NEURÈENÝ') ) ;
#242 = CARTESIAN_POINT ( 'NONE',  ( 4.000000000000000000, 4.898587196589412829E-16, 165.0000000000000000 ) ) ;
#243 = EDGE_CURVE ( 'NONE', #181, #277, #264, .T. ) ;
#244 = FACE_OUTER_BOUND ( 'NONE', #134, .T. ) ;
#245 = DIRECTION ( 'NONE',  ( 1.000000000000000000, 0.000000000000000000, 0.000000000000000000 ) ) ;
#246 = CIRCLE ( 'NONE', #251, 4.000000000000000000 ) ;
#247 = APPROVAL_DATE_TIME ( #58, #221 ) ;
#248 = DATE_AND_TIME ( #148, #293 ) ;
#249 = ORIENTED_EDGE ( 'NONE', *, *, #80, .F. ) ;
#250 = PERSON_AND_ORGANIZATION ( #241, #157 ) ;
#251 = AXIS2_PLACEMENT_3D ( 'NONE', #18, #110, #162 ) ;
#252 = CARTESIAN_POINT ( 'NONE',  ( 0.000000000000000000, 0.000000000000000000, 0.000000000000000000 ) ) ;
#253 = ORIENTED_EDGE ( 'NONE', *, *, #27, .F. ) ;
#254 = PERSON_AND_ORGANIZATION_ROLE ( 'design_supplier' ) ;
#255 = CC_DESIGN_DATE_AND_TIME_ASSIGNMENT ( #56, #97, ( #233 ) ) ;
#256 = ORIENTED_EDGE ( 'NONE', *, *, #123, .T. ) ;
#257 = ORIENTED_EDGE ( 'NONE', *, *, #146, .T. ) ;
#258 = ORIENTED_EDGE ( 'NONE', *, *, #123, .F. ) ;
#259 = AXIS2_PLACEMENT_3D ( 'NONE', #115, #218, #169 ) ;
#260 = CARTESIAN_POINT ( 'NONE',  ( 0.000000000000000000, 0.000000000000000000, 0.000000000000000000 ) ) ;
#261 = PLANE ( 'NONE',  #163 ) ;
#262 = PLANE ( 'NONE',  #109 ) ;
#263 = APPLICATION_CONTEXT ( 'configuration controlled 3d designs of mechanical parts and assemblies' ) ;
#264 = CIRCLE ( 'NONE', #147, 4.000000000000000000 ) ;
#265 = FACE_OUTER_BOUND ( 'NONE', #149, .T. ) ;
#266 = EDGE_CURVE ( 'NONE', #124, #177, #274, .T. ) ;
#267 = CIRCLE ( 'NONE', #303, 7.000000000000000000 ) ;
#268 = CARTESIAN_POINT ( 'NONE',  ( 0.000000000000000000, 0.000000000000000000, 165.0000000000000000 ) ) ;
#269 = CARTESIAN_POINT ( 'NONE',  ( 0.000000000000000000, 0.000000000000000000, 5.200000000000009948 ) ) ;
#270 = CARTESIAN_POINT ( 'NONE',  ( 0.000000000000000000, 0.000000000000000000, 5.000000000000000000 ) ) ;
#271 = AXIS2_PLACEMENT_3D ( 'NONE', #43, #284, #215 ) ;
#272 = APPROVAL_ROLE ( '' ) ;
#273 = EDGE_CURVE ( 'NONE', #177, #178, #111, .T. ) ;
#274 = CIRCLE ( 'NONE', #25, 4.000000000000000000 ) ;
#275 = APPLICATION_PROTOCOL_DEFINITION ( 'international standard', 'config_control_design', 1994, #263 ) ;
#276 = DATE_TIME_ROLE ( 'creation_date' ) ;
#277 = VERTEX_POINT ( 'NONE', #66 ) ;
#278 = ADVANCED_FACE ( 'NONE', ( #116 ), #217, .T. ) ;
#279 = APPLICATION_CONTEXT ( 'configuration controlled 3d designs of mechanical parts and assemblies' ) ;
#280 = DATE_AND_TIME ( #156, #49 ) ;
#281 = DIRECTION ( 'NONE',  ( 1.000000000000000000, 0.000000000000000000, -0.000000000000000000 ) ) ;
#282 = DIRECTION ( 'NONE',  ( -0.000000000000000000, -0.000000000000000000, -1.000000000000000000 ) ) ;
#283 = CARTESIAN_POINT ( 'NONE',  ( -4.000000000000000000, 0.000000000000000000, 165.0000000000000000 ) ) ;
#284 = DIRECTION ( 'NONE',  ( -0.000000000000000000, -0.000000000000000000, -1.000000000000000000 ) ) ;
#285 = EDGE_CURVE ( 'NONE', #181, #124, #189, .T. ) ;
#286 = DIRECTION ( 'NONE',  ( -0.000000000000000000, -0.000000000000000000, -1.000000000000000000 ) ) ;
#287 = PRODUCT ( '296d', '296d', '', ( #201 ) ) ;
#288 = AXIS2_PLACEMENT_3D ( 'NONE', #289, #240, #46 ) ;
#289 = CARTESIAN_POINT ( 'NONE',  ( 0.000000000000000000, 0.000000000000000000, 5.200000000000009948 ) ) ;
#290 = VECTOR ( 'NONE', #161, 1000.000000000000000 ) ;
#291 = LINE ( 'NONE', #170, #214 ) ;
#292 = FACE_OUTER_BOUND ( 'NONE', #206, .T. ) ;
#293 = LOCAL_TIME ( 11, 49, 24.00000000000000000, #53 ) ;
#294 = COORDINATED_UNIVERSAL_TIME_OFFSET ( 1, 0, .AHEAD. ) ;
#295 = PERSON_AND_ORGANIZATION ( #241, #157 ) ;
#296 = ORIENTED_EDGE ( 'NONE', *, *, #235, .T. ) ;
#297 = CC_DESIGN_APPROVAL ( #135, ( #14 ) ) ;
#298 = APPROVAL_DATE_TIME ( #280, #135 ) ;
#299 = ORIENTED_EDGE ( 'NONE', *, *, #27, .T. ) ;
#300 = DIRECTION ( 'NONE',  ( 1.000000000000000000, 0.000000000000000000, 0.000000000000000000 ) ) ;
#301 = DIRECTION ( 'NONE',  ( -0.000000000000000000, -0.000000000000000000, -1.000000000000000000 ) ) ;
#302 = CARTESIAN_POINT ( 'NONE',  ( 7.000000000000000000, 8.572527594031473190E-16, 5.000000000000000000 ) ) ;
#303 = AXIS2_PLACEMENT_3D ( 'NONE', #59, #183, #131 ) ;
#304 = ORIENTED_EDGE ( 'NONE', *, *, #235, .F. ) ;
#305 = CARTESIAN_POINT ( 'NONE',  ( 0.000000000000000000, 0.000000000000000000, 165.0000000000000000 ) ) ;
#306 = ADVANCED_FACE ( 'NONE', ( #244 ), #160, .F. ) ;
#307 = CARTESIAN_POINT ( 'NONE',  ( 0.000000000000000000, 0.000000000000000000, 5.000000000000000000 ) ) ;
ENDSEC;
END-ISO-10303-21;
