ISO-10303-21;
HEADER;
FILE_DESCRIPTION (( 'STEP AP203' ),
    '1' );
FILE_NAME ('8272.STEP',
    '2022-06-20T09:24:59',
    ( '' ),
    ( '' ),
    'SwSTEP 2.0',
    'SolidWorks 2019',
    '' );
FILE_SCHEMA (( 'CONFIG_CONTROL_DESIGN' ));
ENDSEC;

DATA;
#1 = LINE ( 'NONE', #51, #23 ) ;
#2 = DIRECTION ( 'NONE',  ( -0.000000000000000000, -0.000000000000000000, -1.000000000000000000 ) ) ;
#3 = ADVANCED_FACE ( 'NONE', ( #232 ), #230, .F. ) ;
#4 = AXIS2_PLACEMENT_3D ( 'NONE', #178, #114, #62 ) ;
#5 = CIRCLE ( 'NONE', #4, 8.000000000000000000 ) ;
#6 = DIRECTION ( 'NONE',  ( 1.000000000000000000, 0.000000000000000000, 0.000000000000000000 ) ) ;
#7 = DIRECTION ( 'NONE',  ( 0.000000000000000000, 0.000000000000000000, 1.000000000000000000 ) ) ;
#8 = APPROVAL_DATE_TIME ( #57, #49 ) ;
#9 = MECHANICAL_CONTEXT ( 'NONE', #218, 'mechanical' ) ;
#10 = CARTESIAN_POINT ( 'NONE',  ( 0.000000000000000000, 0.000000000000000000, 107.0000000000000142 ) ) ;
#11 = LOCAL_TIME ( 11, 24, 59.00000000000000000, #169 ) ;
#12 = EDGE_CURVE ( 'NONE', #17, #204, #271, .T. ) ;
#13 = APPROVAL_STATUS ( 'not_yet_approved' ) ;
#14 = APPROVAL_STATUS ( 'not_yet_approved' ) ;
#15 = ORIENTED_EDGE ( 'NONE', *, *, #12, .T. ) ;
#16 = LOCAL_TIME ( 11, 24, 59.00000000000000000, #195 ) ;
#17 = VERTEX_POINT ( 'NONE', #136 ) ;
#18 = CARTESIAN_POINT ( 'NONE',  ( 8.200000000000001066, 0.000000000000000000, 6.999999999999999112 ) ) ;
#19 = CARTESIAN_POINT ( 'NONE',  ( 0.000000000000000000, 0.000000000000000000, 7.199999999999998401 ) ) ;
#20 = ORIENTED_EDGE ( 'NONE', *, *, #83, .T. ) ;
#21 = VERTEX_POINT ( 'NONE', #18 ) ;
#22 = ORIENTED_EDGE ( 'NONE', *, *, #276, .F. ) ;
#23 = VECTOR ( 'NONE', #2, 1000.000000000000000 ) ;
#24 = CARTESIAN_POINT ( 'NONE',  ( 0.000000000000000000, 0.000000000000000000, 107.0000000000000142 ) ) ;
#25 = APPROVAL ( #14, 'NEURÈENÝ' ) ;
#26 = CARTESIAN_POINT ( 'NONE',  ( 0.000000000000000000, 0.000000000000000000, 107.0000000000000142 ) ) ;
#27 = DIRECTION ( 'NONE',  ( 1.224646799147353207E-16, 1.000000000000000000, -0.000000000000000000 ) ) ;
#28 = VERTEX_POINT ( 'NONE', #235 ) ;
#29 = CARTESIAN_POINT ( 'NONE',  ( 0.000000000000000000, 0.000000000000000000, 7.199999999999998401 ) ) ;
#30 = DIRECTION ( 'NONE',  ( 1.000000000000000000, 0.000000000000000000, -0.000000000000000000 ) ) ;
#31 = APPROVAL ( #196, 'NEURÈENÝ' ) ;
#32 = CIRCLE ( 'NONE', #38, 8.000000000000000000 ) ;
#33 = MANIFOLD_SOLID_BREP ( 'Zaoblit1', #98 ) ;
#34 = DIRECTION ( 'NONE',  ( 0.000000000000000000, 0.000000000000000000, -1.000000000000000000 ) ) ;
#35 = AXIS2_PLACEMENT_3D ( 'NONE', #97, #142, #261 ) ;
#36 = PRODUCT_DEFINITION ( 'NEZNÁMÝ', '', #273, #252 ) ;
#37 = DATE_AND_TIME ( #149, #187 ) ;
#38 = AXIS2_PLACEMENT_3D ( 'NONE', #29, #96, #186 ) ;
#39 = PERSON_AND_ORGANIZATION_ROLE ( 'classification_officer' ) ;
#40 = ORIENTED_EDGE ( 'NONE', *, *, #248, .T. ) ;
#41 = CC_DESIGN_PERSON_AND_ORGANIZATION_ASSIGNMENT ( #268, #272, ( #36 ) ) ;
#42 = PERSON_AND_ORGANIZATION ( #294, #201 ) ;
#43 = DIRECTION ( 'NONE',  ( 0.000000000000000000, 0.000000000000000000, 1.000000000000000000 ) ) ;
#44 = ORIENTED_EDGE ( 'NONE', *, *, #248, .F. ) ;
#45 = AXIS2_PLACEMENT_3D ( 'NONE', #254, #43, #54 ) ;
#46 = DIRECTION ( 'NONE',  ( 1.000000000000000000, 0.000000000000000000, 0.000000000000000000 ) ) ;
#47 = ORIENTED_EDGE ( 'NONE', *, *, #12, .F. ) ;
#48 = CARTESIAN_POINT ( 'NONE',  ( 0.000000000000000000, 0.000000000000000000, 7.000000000000000000 ) ) ;
#49 = APPROVAL ( #13, 'NEURÈENÝ' ) ;
#50 = PLANE ( 'NONE',  #70 ) ;
#51 = CARTESIAN_POINT ( 'NONE',  ( 8.000000000000000000, 9.797174393178825657E-16, 107.0000000000000142 ) ) ;
#52 = EDGE_LOOP ( 'NONE', ( #177, #66, #113, #157 ) ) ;
#53 = CARTESIAN_POINT ( 'NONE',  ( 0.000000000000000000, 0.000000000000000000, 7.000000000000000000 ) ) ;
#54 = DIRECTION ( 'NONE',  ( 1.000000000000000000, 0.000000000000000000, -0.000000000000000000 ) ) ;
#55 = LINE ( 'NONE', #145, #120 ) ;
#56 = AXIS2_PLACEMENT_3D ( 'NONE', #103, #148, #267 ) ;
#57 = DATE_AND_TIME ( #219, #11 ) ;
#58 = CC_DESIGN_PERSON_AND_ORGANIZATION_ASSIGNMENT ( #107, #253, ( #273 ) ) ;
#59 = COORDINATED_UNIVERSAL_TIME_OFFSET ( 1, 0, .AHEAD. ) ;
#60 = DIRECTION ( 'NONE',  ( 0.000000000000000000, 0.000000000000000000, 1.000000000000000000 ) ) ;
#61 = SECURITY_CLASSIFICATION_LEVEL ( 'unclassified' ) ;
#62 = DIRECTION ( 'NONE',  ( 1.000000000000000000, 0.000000000000000000, 0.000000000000000000 ) ) ;
#63 = ORIENTED_EDGE ( 'NONE', *, *, #134, .F. ) ;
#64 = CC_DESIGN_APPROVAL ( #49, ( #273 ) ) ;
#65 = EDGE_CURVE ( 'NONE', #116, #111, #295, .T. ) ;
#66 = ORIENTED_EDGE ( 'NONE', *, *, #188, .F. ) ;
#67 = EDGE_LOOP ( 'NONE', ( #209, #47, #296, #191 ) ) ;
#68 = DIRECTION ( 'NONE',  ( -1.000000000000000000, 0.000000000000000000, 0.000000000000000000 ) ) ;
#69 = CIRCLE ( 'NONE', #244, 11.00000000000000000 ) ;
#70 = AXIS2_PLACEMENT_3D ( 'NONE', #94, #123, #99 ) ;
#71 = DIRECTION ( 'NONE',  ( 0.000000000000000000, 0.000000000000000000, 1.000000000000000000 ) ) ;
#72 = CARTESIAN_POINT ( 'NONE',  ( 11.00000000000000000, 1.347111479062088405E-15, 7.000000000000000000 ) ) ;
#73 = FACE_BOUND ( 'NONE', #86, .T. ) ;
#74 = DIRECTION ( 'NONE',  ( -1.000000000000000000, 0.000000000000000000, 0.000000000000000000 ) ) ;
#75 = CIRCLE ( 'NONE', #249, 8.000000000000000000 ) ;
#76 = CARTESIAN_POINT ( 'NONE',  ( 0.000000000000000000, 0.000000000000000000, 7.000000000000000000 ) ) ;
#77 = PERSON_AND_ORGANIZATION ( #294, #201 ) ;
#78 = CC_DESIGN_PERSON_AND_ORGANIZATION_ASSIGNMENT ( #194, #291, ( #273 ) ) ;
#79 = AXIS2_PLACEMENT_3D ( 'NONE', #10, #175, #270 ) ;
#80 = PERSON_AND_ORGANIZATION_ROLE ( 'design_owner' ) ;
#81 = APPROVAL_ROLE ( '' ) ;
#82 = CARTESIAN_POINT ( 'NONE',  ( 11.00000000000000000, 1.347111479062088405E-15, 0.000000000000000000 ) ) ;
#83 = EDGE_CURVE ( 'NONE', #28, #93, #5, .T. ) ;
#84 = ORIENTED_EDGE ( 'NONE', *, *, #134, .T. ) ;
#85 = DATE_AND_TIME ( #131, #228 ) ;
#86 = EDGE_LOOP ( 'NONE', ( #90, #109 ) ) ;
#87 = SHAPE_DEFINITION_REPRESENTATION ( #278, #307 ) ;
#88 = CARTESIAN_POINT ( 'NONE',  ( 8.000000000000000000, 9.797174393178825657E-16, 107.0000000000000142 ) ) ;
#89 = EDGE_CURVE ( 'NONE', #257, #133, #172, .T. ) ;
#90 = ORIENTED_EDGE ( 'NONE', *, *, #141, .T. ) ;
#91 = AXIS2_PLACEMENT_3D ( 'NONE', #53, #164, #30 ) ;
#92 = ORIENTED_EDGE ( 'NONE', *, *, #222, .T. ) ;
#93 = VERTEX_POINT ( 'NONE', #88 ) ;
#94 = CARTESIAN_POINT ( 'NONE',  ( 0.000000000000000000, 0.000000000000000000, 107.0000000000000142 ) ) ;
#95 = ADVANCED_FACE ( 'NONE', ( #184 ), #260, .F. ) ;
#96 = DIRECTION ( 'NONE',  ( 0.000000000000000000, 0.000000000000000000, 1.000000000000000000 ) ) ;
#97 = CARTESIAN_POINT ( 'NONE',  ( 0.000000000000000000, 0.000000000000000000, 7.000000000000000000 ) ) ;
#98 = CLOSED_SHELL ( 'NONE', ( #210, #104, #255, #160, #217, #95, #281, #231, #3 ) ) ;
#99 = DIRECTION ( 'NONE',  ( 1.000000000000000000, 0.000000000000000000, -0.000000000000000000 ) ) ;
#100 = PRODUCT_RELATED_PRODUCT_CATEGORY ( 'detail', '', ( #189 ) ) ;
#101 = CYLINDRICAL_SURFACE ( 'NONE', #205, 11.00000000000000000 ) ;
#102 = DATE_AND_TIME ( #106, #16 ) ;
#103 = CARTESIAN_POINT ( 'NONE',  ( 0.000000000000000000, 0.000000000000000000, 0.000000000000000000 ) ) ;
#104 = ADVANCED_FACE ( 'NONE', ( #284 ), #238, .T. ) ;
#105 = APPROVAL_ROLE ( '' ) ;
#106 = CALENDAR_DATE ( 2022, 20, 6 ) ;
#107 = PERSON_AND_ORGANIZATION ( #294, #201 ) ;
#108 =( GEOMETRIC_REPRESENTATION_CONTEXT ( 3 ) GLOBAL_UNCERTAINTY_ASSIGNED_CONTEXT ( ( #112 ) ) GLOBAL_UNIT_ASSIGNED_CONTEXT ( ( #127, #246, #151 ) ) REPRESENTATION_CONTEXT ( 'NONE', 'WORKASPACE' ) );
#109 = ORIENTED_EDGE ( 'NONE', *, *, #150, .T. ) ;
#110 = CC_DESIGN_PERSON_AND_ORGANIZATION_ASSIGNMENT ( #221, #80, ( #189 ) ) ;
#111 = VERTEX_POINT ( 'NONE', #143 ) ;
#112 = UNCERTAINTY_MEASURE_WITH_UNIT (LENGTH_MEASURE( 1.000000000000000082E-05 ), #127, 'distance_accuracy_value', 'NONE');
#113 = ORIENTED_EDGE ( 'NONE', *, *, #293, .T. ) ;
#114 = DIRECTION ( 'NONE',  ( 0.000000000000000000, 0.000000000000000000, 1.000000000000000000 ) ) ;
#115 = TOROIDAL_SURFACE ( 'NONE', #163, 8.200000000000001066, 0.2000000000000000111 ) ;
#116 = VERTEX_POINT ( 'NONE', #162 ) ;
#117 = ORIENTED_EDGE ( 'NONE', *, *, #83, .F. ) ;
#118 = VERTEX_POINT ( 'NONE', #212 ) ;
#119 = DIRECTION ( 'NONE',  ( -0.000000000000000000, -0.000000000000000000, -1.000000000000000000 ) ) ;
#120 = VECTOR ( 'NONE', #243, 1000.000000000000000 ) ;
#121 = CYLINDRICAL_SURFACE ( 'NONE', #224, 11.00000000000000000 ) ;
#122 = ORIENTED_EDGE ( 'NONE', *, *, #130, .F. ) ;
#123 = DIRECTION ( 'NONE',  ( 0.000000000000000000, 0.000000000000000000, 1.000000000000000000 ) ) ;
#124 = CC_DESIGN_APPROVAL ( #31, ( #36 ) ) ;
#125 = APPLICATION_PROTOCOL_DEFINITION ( 'international standard', 'config_control_design', 1994, #218 ) ;
#126 = CIRCLE ( 'NONE', #35, 8.200000000000001066 ) ;
#127 =( LENGTH_UNIT ( ) NAMED_UNIT ( * ) SI_UNIT ( .MILLI., .METRE. ) );
#128 = SECURITY_CLASSIFICATION ( '', '', #61 ) ;
#129 = DATE_TIME_ROLE ( 'creation_date' ) ;
#130 = EDGE_CURVE ( 'NONE', #93, #28, #75, .T. ) ;
#131 = CALENDAR_DATE ( 2022, 20, 6 ) ;
#132 = PERSON_AND_ORGANIZATION ( #294, #201 ) ;
#133 = VERTEX_POINT ( 'NONE', #266 ) ;
#134 = EDGE_CURVE ( 'NONE', #93, #111, #1, .T. ) ;
#135 = ORIENTED_EDGE ( 'NONE', *, *, #188, .T. ) ;
#136 = CARTESIAN_POINT ( 'NONE',  ( -11.00000000000000000, 0.000000000000000000, 7.000000000000000000 ) ) ;
#137 = DIRECTION ( 'NONE',  ( 1.000000000000000000, 0.000000000000000000, 0.000000000000000000 ) ) ;
#138 = ORIENTED_EDGE ( 'NONE', *, *, #141, .F. ) ;
#139 = DIRECTION ( 'NONE',  ( -0.000000000000000000, -0.000000000000000000, -1.000000000000000000 ) ) ;
#140 = DIRECTION ( 'NONE',  ( -1.000000000000000000, 0.000000000000000000, 0.000000000000000000 ) ) ;
#141 = EDGE_CURVE ( 'NONE', #21, #118, #126, .T. ) ;
#142 = DIRECTION ( 'NONE',  ( -0.000000000000000000, -0.000000000000000000, -1.000000000000000000 ) ) ;
#143 = CARTESIAN_POINT ( 'NONE',  ( 8.000000000000000000, 9.797174393178825657E-16, 7.199999999999998401 ) ) ;
#144 = FACE_OUTER_BOUND ( 'NONE', #203, .T. ) ;
#145 = CARTESIAN_POINT ( 'NONE',  ( 11.00000000000000000, 1.347111479062088405E-15, 7.000000000000000000 ) ) ;
#146 = CC_DESIGN_PERSON_AND_ORGANIZATION_ASSIGNMENT ( #42, #39, ( #128 ) ) ;
#147 = CARTESIAN_POINT ( 'NONE',  ( 8.200000000000001066, 0.000000000000000000, 7.199999999999998401 ) ) ;
#148 = DIRECTION ( 'NONE',  ( 0.000000000000000000, 0.000000000000000000, 1.000000000000000000 ) ) ;
#149 = CALENDAR_DATE ( 2022, 20, 6 ) ;
#150 = EDGE_CURVE ( 'NONE', #118, #21, #155, .T. ) ;
#151 =( NAMED_UNIT ( * ) SI_UNIT ( $, .STERADIAN. ) SOLID_ANGLE_UNIT ( ) );
#152 = DATE_AND_TIME ( #250, #170 ) ;
#153 = DIRECTION ( 'NONE',  ( 0.000000000000000000, 0.000000000000000000, 1.000000000000000000 ) ) ;
#154 = DIRECTION ( 'NONE',  ( 1.000000000000000000, 0.000000000000000000, 0.000000000000000000 ) ) ;
#155 = CIRCLE ( 'NONE', #289, 8.200000000000001066 ) ;
#156 = APPROVAL_PERSON_ORGANIZATION ( #223, #31, #81 ) ;
#157 = ORIENTED_EDGE ( 'NONE', *, *, #150, .F. ) ;
#158 = COORDINATED_UNIVERSAL_TIME_OFFSET ( 1, 0, .AHEAD. ) ;
#159 = ORIENTED_EDGE ( 'NONE', *, *, #130, .T. ) ;
#160 = ADVANCED_FACE ( 'NONE', ( #242 ), #121, .T. ) ;
#161 = CARTESIAN_POINT ( 'NONE',  ( 0.000000000000000000, 0.000000000000000000, 7.199999999999998401 ) ) ;
#162 = CARTESIAN_POINT ( 'NONE',  ( -8.000000000000000000, 0.000000000000000000, 7.199999999999998401 ) ) ;
#163 = AXIS2_PLACEMENT_3D ( 'NONE', #208, #71, #214 ) ;
#164 = DIRECTION ( 'NONE',  ( 0.000000000000000000, 0.000000000000000000, 1.000000000000000000 ) ) ;
#165 = FACE_OUTER_BOUND ( 'NONE', #286, .T. ) ;
#166 = DIRECTION ( 'NONE',  ( 1.000000000000000000, 0.000000000000000000, 0.000000000000000000 ) ) ;
#167 = VECTOR ( 'NONE', #236, 1000.000000000000000 ) ;
#168 = DIRECTION ( 'NONE',  ( 1.000000000000000000, 0.000000000000000000, 0.000000000000000000 ) ) ;
#169 = COORDINATED_UNIVERSAL_TIME_OFFSET ( 1, 0, .AHEAD. ) ;
#170 = LOCAL_TIME ( 11, 24, 59.00000000000000000, #158 ) ;
#171 = FACE_OUTER_BOUND ( 'NONE', #182, .T. ) ;
#172 = CIRCLE ( 'NONE', #292, 11.00000000000000000 ) ;
#173 = AXIS2_PLACEMENT_3D ( 'NONE', #19, #300, #233 ) ;
#174 = APPROVAL_DATE_TIME ( #102, #31 ) ;
#175 = DIRECTION ( 'NONE',  ( -0.000000000000000000, -0.000000000000000000, -1.000000000000000000 ) ) ;
#176 = COORDINATED_UNIVERSAL_TIME_OFFSET ( 1, 0, .AHEAD. ) ;
#177 = ORIENTED_EDGE ( 'NONE', *, *, #222, .F. ) ;
#178 = CARTESIAN_POINT ( 'NONE',  ( 0.000000000000000000, 0.000000000000000000, 107.0000000000000142 ) ) ;
#179 = CC_DESIGN_DATE_AND_TIME_ASSIGNMENT ( #152, #256, ( #128 ) ) ;
#180 = ORIENTED_EDGE ( 'NONE', *, *, #65, .T. ) ;
#181 = AXIS2_PLACEMENT_3D ( 'NONE', #147, #245, #34 ) ;
#182 = EDGE_LOOP ( 'NONE', ( #63, #117, #40, #180 ) ) ;
#183 = APPROVAL_DATE_TIME ( #85, #25 ) ;
#184 = FACE_OUTER_BOUND ( 'NONE', #207, .T. ) ;
#185 = DIRECTION ( 'NONE',  ( -0.000000000000000000, -0.000000000000000000, -1.000000000000000000 ) ) ;
#186 = DIRECTION ( 'NONE',  ( 1.000000000000000000, 0.000000000000000000, 0.000000000000000000 ) ) ;
#187 = LOCAL_TIME ( 11, 24, 59.00000000000000000, #59 ) ;
#188 = EDGE_CURVE ( 'NONE', #111, #116, #32, .T. ) ;
#189 = PRODUCT ( '8272', '8272', '', ( #9 ) ) ;
#190 = LINE ( 'NONE', #285, #297 ) ;
#191 = ORIENTED_EDGE ( 'NONE', *, *, #237, .T. ) ;
#192 = CARTESIAN_POINT ( 'NONE',  ( 0.000000000000000000, 0.000000000000000000, 0.000000000000000000 ) ) ;
#193 = CARTESIAN_POINT ( 'NONE',  ( 0.000000000000000000, 0.000000000000000000, 7.000000000000000000 ) ) ;
#194 = PERSON_AND_ORGANIZATION ( #294, #201 ) ;
#195 = COORDINATED_UNIVERSAL_TIME_OFFSET ( 1, 0, .AHEAD. ) ;
#196 = APPROVAL_STATUS ( 'not_yet_approved' ) ;
#197 = EDGE_CURVE ( 'NONE', #17, #133, #190, .T. ) ;
#198 = CYLINDRICAL_SURFACE ( 'NONE', #79, 8.000000000000000000 ) ;
#199 = DIRECTION ( 'NONE',  ( 0.000000000000000000, 0.000000000000000000, 1.000000000000000000 ) ) ;
#200 = CIRCLE ( 'NONE', #302, 0.2000000000000005107 ) ;
#201 = ORGANIZATION ( 'NEURÈENÝ', 'NEURÈENÝ', '' ) ;
#202 = CARTESIAN_POINT ( 'NONE',  ( 0.000000000000000000, 0.000000000000000000, 7.000000000000000000 ) ) ;
#203 = EDGE_LOOP ( 'NONE', ( #20, #159 ) ) ;
#204 = VERTEX_POINT ( 'NONE', #72 ) ;
#205 = AXIS2_PLACEMENT_3D ( 'NONE', #193, #290, #68 ) ;
#206 = CARTESIAN_POINT ( 'NONE',  ( 0.000000000000000000, 0.000000000000000000, 0.000000000000000000 ) ) ;
#207 = EDGE_LOOP ( 'NONE', ( #275, #227 ) ) ;
#208 = CARTESIAN_POINT ( 'NONE',  ( 0.000000000000000000, 0.000000000000000000, 7.199999999999998401 ) ) ;
#209 = ORIENTED_EDGE ( 'NONE', *, *, #305, .F. ) ;
#210 = ADVANCED_FACE ( 'NONE', ( #165 ), #115, .F. ) ;
#211 = DIRECTION ( 'NONE',  ( -0.000000000000000000, -0.000000000000000000, -1.000000000000000000 ) ) ;
#212 = CARTESIAN_POINT ( 'NONE',  ( -8.200000000000001066, 1.004210375300829674E-15, 6.999999999999999112 ) ) ;
#213 = CIRCLE ( 'NONE', #181, 0.1999999999999996503 ) ;
#214 = DIRECTION ( 'NONE',  ( 1.000000000000000000, 0.000000000000000000, 0.000000000000000000 ) ) ;
#215 = AXIS2_PLACEMENT_3D ( 'NONE', #161, #280, #137 ) ;
#216 = CARTESIAN_POINT ( 'NONE',  ( -8.000000000000000000, 0.000000000000000000, 107.0000000000000142 ) ) ;
#217 = ADVANCED_FACE ( 'NONE', ( #73, #306 ), #264, .T. ) ;
#218 = APPLICATION_CONTEXT ( 'configuration controlled 3d designs of mechanical parts and assemblies' ) ;
#219 = CALENDAR_DATE ( 2022, 20, 6 ) ;
#220 = APPROVAL_PERSON_ORGANIZATION ( #132, #25, #258 ) ;
#221 = PERSON_AND_ORGANIZATION ( #294, #201 ) ;
#222 = EDGE_CURVE ( 'NONE', #116, #118, #200, .T. ) ;
#223 = PERSON_AND_ORGANIZATION ( #294, #201 ) ;
#224 = AXIS2_PLACEMENT_3D ( 'NONE', #48, #211, #140 ) ;
#225 = APPROVAL_PERSON_ORGANIZATION ( #77, #49, #105 ) ;
#226 = DIRECTION ( 'NONE',  ( 1.000000000000000000, 0.000000000000000000, 0.000000000000000000 ) ) ;
#227 = ORIENTED_EDGE ( 'NONE', *, *, #89, .F. ) ;
#228 = LOCAL_TIME ( 11, 24, 59.00000000000000000, #176 ) ;
#229 = EDGE_LOOP ( 'NONE', ( #15, #279 ) ) ;
#230 = TOROIDAL_SURFACE ( 'NONE', #215, 8.200000000000001066, 0.2000000000000000111 ) ;
#231 = ADVANCED_FACE ( 'NONE', ( #144 ), #50, .T. ) ;
#232 = FACE_OUTER_BOUND ( 'NONE', #52, .T. ) ;
#233 = DIRECTION ( 'NONE',  ( 1.000000000000000000, 0.000000000000000000, 0.000000000000000000 ) ) ;
#234 = APPLICATION_CONTEXT ( 'configuration controlled 3d designs of mechanical parts and assemblies' ) ;
#235 = CARTESIAN_POINT ( 'NONE',  ( -8.000000000000000000, 0.000000000000000000, 107.0000000000000142 ) ) ;
#236 = DIRECTION ( 'NONE',  ( -0.000000000000000000, -0.000000000000000000, -1.000000000000000000 ) ) ;
#237 = EDGE_CURVE ( 'NONE', #133, #257, #69, .T. ) ;
#238 = CYLINDRICAL_SURFACE ( 'NONE', #262, 8.000000000000000000 ) ;
#239 = CARTESIAN_POINT ( 'NONE',  ( -8.200000000000001066, 1.004210375300829674E-15, 7.199999999999998401 ) ) ;
#240 = CIRCLE ( 'NONE', #283, 11.00000000000000000 ) ;
#241 = CARTESIAN_POINT ( 'NONE',  ( 0.000000000000000000, 0.000000000000000000, 7.000000000000000000 ) ) ;
#242 = FACE_OUTER_BOUND ( 'NONE', #67, .T. ) ;
#243 = DIRECTION ( 'NONE',  ( -0.000000000000000000, -0.000000000000000000, -1.000000000000000000 ) ) ;
#244 = AXIS2_PLACEMENT_3D ( 'NONE', #192, #7, #166 ) ;
#245 = DIRECTION ( 'NONE',  ( 0.000000000000000000, -1.000000000000000000, 0.000000000000000000 ) ) ;
#246 =( NAMED_UNIT ( * ) PLANE_ANGLE_UNIT ( ) SI_UNIT ( $, .RADIAN. ) );
#247 = APPLICATION_PROTOCOL_DEFINITION ( 'international standard', 'config_control_design', 1994, #234 ) ;
#248 = EDGE_CURVE ( 'NONE', #28, #116, #265, .T. ) ;
#249 = AXIS2_PLACEMENT_3D ( 'NONE', #24, #288, #6 ) ;
#250 = CALENDAR_DATE ( 2022, 20, 6 ) ;
#251 = ORIENTED_EDGE ( 'NONE', *, *, #65, .F. ) ;
#252 = DESIGN_CONTEXT ( 'detailed design', #234, 'design' ) ;
#253 = PERSON_AND_ORGANIZATION_ROLE ( 'design_supplier' ) ;
#254 = CARTESIAN_POINT ( 'NONE',  ( 0.000000000000000000, 0.000000000000000000, 0.000000000000000000 ) ) ;
#255 = ADVANCED_FACE ( 'NONE', ( #282 ), #101, .T. ) ;
#256 = DATE_TIME_ROLE ( 'classification_date' ) ;
#257 = VERTEX_POINT ( 'NONE', #82 ) ;
#258 = APPROVAL_ROLE ( '' ) ;
#259 = ORIENTED_EDGE ( 'NONE', *, *, #197, .F. ) ;
#260 = PLANE ( 'NONE',  #45 ) ;
#261 = DIRECTION ( 'NONE',  ( 1.000000000000000000, 0.000000000000000000, 0.000000000000000000 ) ) ;
#262 = AXIS2_PLACEMENT_3D ( 'NONE', #26, #119, #74 ) ;
#263 = DIRECTION ( 'NONE',  ( -1.000000000000000000, 1.224646799147353207E-16, 0.000000000000000000 ) ) ;
#264 = PLANE ( 'NONE',  #91 ) ;
#265 = LINE ( 'NONE', #216, #167 ) ;
#266 = CARTESIAN_POINT ( 'NONE',  ( -11.00000000000000000, 0.000000000000000000, 0.000000000000000000 ) ) ;
#267 = DIRECTION ( 'NONE',  ( 1.000000000000000000, 0.000000000000000000, 0.000000000000000000 ) ) ;
#268 = PERSON_AND_ORGANIZATION ( #294, #201 ) ;
#269 = CC_DESIGN_APPROVAL ( #25, ( #128 ) ) ;
#270 = DIRECTION ( 'NONE',  ( -1.000000000000000000, 0.000000000000000000, 0.000000000000000000 ) ) ;
#271 = CIRCLE ( 'NONE', #299, 11.00000000000000000 ) ;
#272 = PERSON_AND_ORGANIZATION_ROLE ( 'creator' ) ;
#273 = PRODUCT_DEFINITION_FORMATION_WITH_SPECIFIED_SOURCE ( 'LIBOVOLNÝ', '', #189, .NOT_KNOWN. ) ;
#274 = ORIENTED_EDGE ( 'NONE', *, *, #89, .T. ) ;
#275 = ORIENTED_EDGE ( 'NONE', *, *, #237, .F. ) ;
#276 = EDGE_CURVE ( 'NONE', #204, #17, #240, .T. ) ;
#277 = ORIENTED_EDGE ( 'NONE', *, *, #305, .T. ) ;
#278 = PRODUCT_DEFINITION_SHAPE ( 'NONE', 'NONE',  #36 ) ;
#279 = ORIENTED_EDGE ( 'NONE', *, *, #276, .T. ) ;
#280 = DIRECTION ( 'NONE',  ( 0.000000000000000000, 0.000000000000000000, 1.000000000000000000 ) ) ;
#281 = ADVANCED_FACE ( 'NONE', ( #171 ), #198, .T. ) ;
#282 = FACE_OUTER_BOUND ( 'NONE', #301, .T. ) ;
#283 = AXIS2_PLACEMENT_3D ( 'NONE', #76, #199, #226 ) ;
#284 = FACE_OUTER_BOUND ( 'NONE', #304, .T. ) ;
#285 = CARTESIAN_POINT ( 'NONE',  ( -11.00000000000000000, 0.000000000000000000, 7.000000000000000000 ) ) ;
#286 = EDGE_LOOP ( 'NONE', ( #251, #92, #138, #298 ) ) ;
#287 = CC_DESIGN_DATE_AND_TIME_ASSIGNMENT ( #37, #129, ( #36 ) ) ;
#288 = DIRECTION ( 'NONE',  ( 0.000000000000000000, 0.000000000000000000, 1.000000000000000000 ) ) ;
#289 = AXIS2_PLACEMENT_3D ( 'NONE', #241, #185, #168 ) ;
#290 = DIRECTION ( 'NONE',  ( -0.000000000000000000, -0.000000000000000000, -1.000000000000000000 ) ) ;
#291 = PERSON_AND_ORGANIZATION_ROLE ( 'creator' ) ;
#292 = AXIS2_PLACEMENT_3D ( 'NONE', #206, #153, #154 ) ;
#293 = EDGE_CURVE ( 'NONE', #111, #21, #213, .T. ) ;
#294 = PERSON ( 'NEURÈENÝ', 'NEURÈENÝ', 'NEURÈENÝ', ('NEURÈENÝ'), ('NEURÈENÝ'), ('NEURÈENÝ') ) ;
#295 = CIRCLE ( 'NONE', #173, 8.000000000000000000 ) ;
#296 = ORIENTED_EDGE ( 'NONE', *, *, #197, .T. ) ;
#297 = VECTOR ( 'NONE', #139, 1000.000000000000000 ) ;
#298 = ORIENTED_EDGE ( 'NONE', *, *, #293, .F. ) ;
#299 = AXIS2_PLACEMENT_3D ( 'NONE', #202, #60, #46 ) ;
#300 = DIRECTION ( 'NONE',  ( 0.000000000000000000, 0.000000000000000000, 1.000000000000000000 ) ) ;
#301 = EDGE_LOOP ( 'NONE', ( #22, #277, #274, #259 ) ) ;
#302 = AXIS2_PLACEMENT_3D ( 'NONE', #239, #27, #263 ) ;
#303 = CC_DESIGN_SECURITY_CLASSIFICATION ( #128, ( #273 ) ) ;
#304 = EDGE_LOOP ( 'NONE', ( #122, #84, #135, #44 ) ) ;
#305 = EDGE_CURVE ( 'NONE', #204, #257, #55, .T. ) ;
#306 = FACE_OUTER_BOUND ( 'NONE', #229, .T. ) ;
#307 = ADVANCED_BREP_SHAPE_REPRESENTATION ( '8272', ( #33, #56 ), #108 ) ;
ENDSEC;
END-ISO-10303-21;
