ISO-10303-21;
HEADER;
FILE_DESCRIPTION (( 'STEP AP203' ),
    '1' );
FILE_NAME ('c63d.STEP',
    '2022-06-20T09:28:30',
    ( '' ),
    ( '' ),
    'SwSTEP 2.0',
    'SolidWorks 2019',
    '' );
FILE_SCHEMA (( 'CONFIG_CONTROL_DESIGN' ));
ENDSEC;

DATA;
#1 = CC_DESIGN_SECURITY_CLASSIFICATION ( #145, ( #288 ) ) ;
#2 = PERSON_AND_ORGANIZATION ( #212, #242 ) ;
#3 = PERSON_AND_ORGANIZATION_ROLE ( 'creator' ) ;
#4 = PERSON_AND_ORGANIZATION_ROLE ( 'classification_officer' ) ;
#5 = ORIENTED_EDGE ( 'NONE', *, *, #72, .T. ) ;
#6 = CARTESIAN_POINT ( 'NONE',  ( 0.000000000000000000, 0.000000000000000000, 7.200000000000011724 ) ) ;
#7 = CIRCLE ( 'NONE', #138, 9.000000000000000000 ) ;
#8 = EDGE_CURVE ( 'NONE', #83, #192, #36, .T. ) ;
#9 = DIRECTION ( 'NONE',  ( 1.000000000000000000, 0.000000000000000000, 0.000000000000000000 ) ) ;
#10 = CARTESIAN_POINT ( 'NONE',  ( 0.000000000000000000, 0.000000000000000000, 257.0000000000000000 ) ) ;
#11 = ORIENTED_EDGE ( 'NONE', *, *, #35, .F. ) ;
#12 = DIRECTION ( 'NONE',  ( 1.000000000000000000, 0.000000000000000000, 0.000000000000000000 ) ) ;
#13 = EDGE_LOOP ( 'NONE', ( #131, #156, #59, #158 ) ) ;
#14 = CARTESIAN_POINT ( 'NONE',  ( 6.250000000000000000, 7.654042494670957606E-16, 257.0000000000000000 ) ) ;
#15 = LOCAL_TIME ( 11, 28, 30.00000000000000000, #167 ) ;
#16 = DIRECTION ( 'NONE',  ( -0.000000000000000000, -0.000000000000000000, -1.000000000000000000 ) ) ;
#17 = DIRECTION ( 'NONE',  ( -0.000000000000000000, -0.000000000000000000, -1.000000000000000000 ) ) ;
#18 = ORIENTED_EDGE ( 'NONE', *, *, #305, .F. ) ;
#19 = AXIS2_PLACEMENT_3D ( 'NONE', #53, #82, #179 ) ;
#20 = DIRECTION ( 'NONE',  ( -1.000000000000000000, 0.000000000000000000, 0.000000000000000000 ) ) ;
#21 = PERSON_AND_ORGANIZATION ( #212, #242 ) ;
#22 = PRODUCT ( 'c63d', 'c63d', '', ( #301 ) ) ;
#23 = APPROVAL ( #69, 'NEURÈENÝ' ) ;
#24 = VERTEX_POINT ( 'NONE', #205 ) ;
#25 = AXIS2_PLACEMENT_3D ( 'NONE', #98, #58, #84 ) ;
#26 = DIRECTION ( 'NONE',  ( -0.000000000000000000, -0.000000000000000000, -1.000000000000000000 ) ) ;
#27 = ADVANCED_FACE ( 'NONE', ( #222 ), #132, .T. ) ;
#28 = CARTESIAN_POINT ( 'NONE',  ( 9.000000000000000000, 1.102182119232617714E-15, 0.000000000000000000 ) ) ;
#29 = ORIENTED_EDGE ( 'NONE', *, *, #48, .F. ) ;
#30 = AXIS2_PLACEMENT_3D ( 'NONE', #307, #185, #141 ) ;
#31 = LINE ( 'NONE', #229, #172 ) ;
#32 = DIRECTION ( 'NONE',  ( 0.000000000000000000, 0.000000000000000000, 1.000000000000000000 ) ) ;
#33 = VERTEX_POINT ( 'NONE', #245 ) ;
#34 = CARTESIAN_POINT ( 'NONE',  ( 9.000000000000000000, 1.102182119232617714E-15, 7.000000000000000000 ) ) ;
#35 = EDGE_CURVE ( 'NONE', #37, #85, #121, .T. ) ;
#36 = LINE ( 'NONE', #227, #154 ) ;
#37 = VERTEX_POINT ( 'NONE', #277 ) ;
#38 = DIRECTION ( 'NONE',  ( 0.000000000000000000, 0.000000000000000000, 1.000000000000000000 ) ) ;
#39 = EDGE_CURVE ( 'NONE', #111, #83, #221, .T. ) ;
#40 = CARTESIAN_POINT ( 'NONE',  ( -9.000000000000000000, 0.000000000000000000, 0.000000000000000000 ) ) ;
#41 = DIRECTION ( 'NONE',  ( 0.000000000000000000, 0.000000000000000000, 1.000000000000000000 ) ) ;
#42 = CIRCLE ( 'NONE', #218, 0.1999999999999996503 ) ;
#43 = CARTESIAN_POINT ( 'NONE',  ( 0.000000000000000000, 0.000000000000000000, 0.000000000000000000 ) ) ;
#44 = DATE_AND_TIME ( #147, #226 ) ;
#45 = CC_DESIGN_PERSON_AND_ORGANIZATION_ASSIGNMENT ( #163, #260, ( #22 ) ) ;
#46 = COORDINATED_UNIVERSAL_TIME_OFFSET ( 1, 0, .AHEAD. ) ;
#47 = DATE_AND_TIME ( #241, #15 ) ;
#48 = EDGE_CURVE ( 'NONE', #85, #297, #126, .T. ) ;
#49 = CALENDAR_DATE ( 2022, 20, 6 ) ;
#50 = CC_DESIGN_PERSON_AND_ORGANIZATION_ASSIGNMENT ( #21, #170, ( #288 ) ) ;
#51 = ORIENTED_EDGE ( 'NONE', *, *, #72, .F. ) ;
#52 = DIRECTION ( 'NONE',  ( 1.000000000000000000, 0.000000000000000000, 0.000000000000000000 ) ) ;
#53 = CARTESIAN_POINT ( 'NONE',  ( 0.000000000000000000, 0.000000000000000000, 7.000000000000000000 ) ) ;
#54 = FACE_OUTER_BOUND ( 'NONE', #293, .T. ) ;
#55 = AXIS2_PLACEMENT_3D ( 'NONE', #10, #298, #279 ) ;
#56 = ORIENTED_EDGE ( 'NONE', *, *, #35, .T. ) ;
#57 = EDGE_CURVE ( 'NONE', #85, #37, #270, .T. ) ;
#58 = DIRECTION ( 'NONE',  ( -0.000000000000000000, -0.000000000000000000, -1.000000000000000000 ) ) ;
#59 = ORIENTED_EDGE ( 'NONE', *, *, #231, .T. ) ;
#60 = ORIENTED_EDGE ( 'NONE', *, *, #267, .F. ) ;
#61 =( NAMED_UNIT ( * ) SI_UNIT ( $, .STERADIAN. ) SOLID_ANGLE_UNIT ( ) );
#62 = CIRCLE ( 'NONE', #71, 6.450000000000000178 ) ;
#63 = CC_DESIGN_PERSON_AND_ORGANIZATION_ASSIGNMENT ( #74, #4, ( #145 ) ) ;
#64 = CARTESIAN_POINT ( 'NONE',  ( 0.000000000000000000, 0.000000000000000000, 0.000000000000000000 ) ) ;
#65 = CARTESIAN_POINT ( 'NONE',  ( 0.000000000000000000, 0.000000000000000000, 7.200000000000011724 ) ) ;
#66 = CYLINDRICAL_SURFACE ( 'NONE', #91, 6.250000000000000000 ) ;
#67 = CIRCLE ( 'NONE', #30, 9.000000000000000000 ) ;
#68 = DATE_AND_TIME ( #118, #187 ) ;
#69 = APPROVAL_STATUS ( 'not_yet_approved' ) ;
#70 = CC_DESIGN_PERSON_AND_ORGANIZATION_ASSIGNMENT ( #144, #75, ( #288 ) ) ;
#71 = AXIS2_PLACEMENT_3D ( 'NONE', #152, #182, #52 ) ;
#72 = EDGE_CURVE ( 'NONE', #297, #135, #195, .T. ) ;
#73 = AXIS2_PLACEMENT_3D ( 'NONE', #79, #32, #294 ) ;
#74 = PERSON_AND_ORGANIZATION ( #212, #242 ) ;
#75 = PERSON_AND_ORGANIZATION_ROLE ( 'design_supplier' ) ;
#76 = ORIENTED_EDGE ( 'NONE', *, *, #93, .T. ) ;
#77 = DIRECTION ( 'NONE',  ( 0.000000000000000000, 0.000000000000000000, 1.000000000000000000 ) ) ;
#78 = DATE_TIME_ROLE ( 'classification_date' ) ;
#79 = CARTESIAN_POINT ( 'NONE',  ( 0.000000000000000000, 0.000000000000000000, 7.000000000000000000 ) ) ;
#80 = EDGE_LOOP ( 'NONE', ( #290, #224, #133, #51 ) ) ;
#81 = EDGE_CURVE ( 'NONE', #111, #125, #254, .T. ) ;
#82 = DIRECTION ( 'NONE',  ( 0.000000000000000000, 0.000000000000000000, 1.000000000000000000 ) ) ;
#83 = VERTEX_POINT ( 'NONE', #130 ) ;
#84 = DIRECTION ( 'NONE',  ( 1.000000000000000000, 0.000000000000000000, 0.000000000000000000 ) ) ;
#85 = VERTEX_POINT ( 'NONE', #14 ) ;
#86 = EDGE_CURVE ( 'NONE', #125, #192, #235, .T. ) ;
#87 = VECTOR ( 'NONE', #26, 1000.000000000000000 ) ;
#88 = APPLICATION_CONTEXT ( 'configuration controlled 3d designs of mechanical parts and assemblies' ) ;
#89 = CARTESIAN_POINT ( 'NONE',  ( -6.450000000000000178, 7.898971854500428692E-16, 7.200000000000011724 ) ) ;
#90 = DIRECTION ( 'NONE',  ( -1.000000000000000000, 1.224646799147353454E-16, 0.000000000000000000 ) ) ;
#91 = AXIS2_PLACEMENT_3D ( 'NONE', #213, #17, #20 ) ;
#92 = APPROVAL_DATE_TIME ( #68, #289 ) ;
#93 = EDGE_CURVE ( 'NONE', #24, #297, #296, .T. ) ;
#94 = SECURITY_CLASSIFICATION_LEVEL ( 'unclassified' ) ;
#95 = CIRCLE ( 'NONE', #25, 6.450000000000000178 ) ;
#96 = COORDINATED_UNIVERSAL_TIME_OFFSET ( 1, 0, .AHEAD. ) ;
#97 = EDGE_LOOP ( 'NONE', ( #207, #160 ) ) ;
#98 = CARTESIAN_POINT ( 'NONE',  ( 0.000000000000000000, 0.000000000000000000, 7.000000000000000000 ) ) ;
#99 = CC_DESIGN_APPROVAL ( #289, ( #145 ) ) ;
#100 = DIRECTION ( 'NONE',  ( 1.000000000000000000, 0.000000000000000000, -0.000000000000000000 ) ) ;
#101 = EDGE_LOOP ( 'NONE', ( #18, #299, #5, #278 ) ) ;
#102 = DIRECTION ( 'NONE',  ( 0.000000000000000000, 0.000000000000000000, 1.000000000000000000 ) ) ;
#103 = ORIENTED_EDGE ( 'NONE', *, *, #81, .F. ) ;
#104 = DIRECTION ( 'NONE',  ( 1.000000000000000000, 0.000000000000000000, 0.000000000000000000 ) ) ;
#105 = ORIENTED_EDGE ( 'NONE', *, *, #267, .T. ) ;
#106 = APPROVAL_PERSON_ORGANIZATION ( #2, #23, #271 ) ;
#107 = CARTESIAN_POINT ( 'NONE',  ( 6.450000000000000178, 0.000000000000000000, 7.200000000000011724 ) ) ;
#108 = ORIENTED_EDGE ( 'NONE', *, *, #39, .F. ) ;
#109 = ADVANCED_BREP_SHAPE_REPRESENTATION ( 'c63d', ( #216, #165 ), #257 ) ;
#110 = FACE_OUTER_BOUND ( 'NONE', #246, .T. ) ;
#111 = VERTEX_POINT ( 'NONE', #201 ) ;
#112 = CARTESIAN_POINT ( 'NONE',  ( 0.000000000000000000, 0.000000000000000000, 0.000000000000000000 ) ) ;
#113 = DIRECTION ( 'NONE',  ( 1.000000000000000000, 0.000000000000000000, 0.000000000000000000 ) ) ;
#114 = AXIS2_PLACEMENT_3D ( 'NONE', #64, #41, #281 ) ;
#115 = VECTOR ( 'NONE', #225, 1000.000000000000000 ) ;
#116 = DIRECTION ( 'NONE',  ( -1.000000000000000000, 0.000000000000000000, 0.000000000000000000 ) ) ;
#117 = ADVANCED_FACE ( 'NONE', ( #204 ), #302, .F. ) ;
#118 = CALENDAR_DATE ( 2022, 20, 6 ) ;
#119 = CALENDAR_DATE ( 2022, 20, 6 ) ;
#120 = TOROIDAL_SURFACE ( 'NONE', #248, 6.450000000000000178, 0.2000000000000000111 ) ;
#121 = CIRCLE ( 'NONE', #55, 6.250000000000000000 ) ;
#122 = ADVANCED_FACE ( 'NONE', ( #291, #54 ), #273, .T. ) ;
#123 = DATE_AND_TIME ( #49, #239 ) ;
#124 = DIRECTION ( 'NONE',  ( 0.000000000000000000, -1.000000000000000000, 0.000000000000000000 ) ) ;
#125 = VERTEX_POINT ( 'NONE', #28 ) ;
#126 = LINE ( 'NONE', #223, #87 ) ;
#127 = AXIS2_PLACEMENT_3D ( 'NONE', #206, #233, #116 ) ;
#128 = EDGE_CURVE ( 'NONE', #135, #33, #95, .T. ) ;
#129 = CARTESIAN_POINT ( 'NONE',  ( 0.000000000000000000, 0.000000000000000000, 7.200000000000011724 ) ) ;
#130 = CARTESIAN_POINT ( 'NONE',  ( -9.000000000000000000, 0.000000000000000000, 7.000000000000000000 ) ) ;
#131 = ORIENTED_EDGE ( 'NONE', *, *, #57, .F. ) ;
#132 = PLANE ( 'NONE',  #210 ) ;
#133 = ORIENTED_EDGE ( 'NONE', *, *, #128, .F. ) ;
#134 = APPROVAL_PERSON_ORGANIZATION ( #217, #286, #240 ) ;
#135 = VERTEX_POINT ( 'NONE', #157 ) ;
#136 = EDGE_CURVE ( 'NONE', #33, #135, #62, .T. ) ;
#137 = DIRECTION ( 'NONE',  ( 1.000000000000000000, 0.000000000000000000, 0.000000000000000000 ) ) ;
#138 = AXIS2_PLACEMENT_3D ( 'NONE', #43, #38, #137 ) ;
#139 = CARTESIAN_POINT ( 'NONE',  ( 0.000000000000000000, 0.000000000000000000, 7.000000000000000000 ) ) ;
#140 = AXIS2_PLACEMENT_3D ( 'NONE', #177, #102, #12 ) ;
#141 = DIRECTION ( 'NONE',  ( 1.000000000000000000, 0.000000000000000000, 0.000000000000000000 ) ) ;
#142 = DATE_TIME_ROLE ( 'creation_date' ) ;
#143 = ADVANCED_FACE ( 'NONE', ( #149 ), #244, .T. ) ;
#144 = PERSON_AND_ORGANIZATION ( #212, #242 ) ;
#145 = SECURITY_CLASSIFICATION ( '', '', #94 ) ;
#146 = APPLICATION_PROTOCOL_DEFINITION ( 'international standard', 'config_control_design', 1994, #88 ) ;
#147 = CALENDAR_DATE ( 2022, 20, 6 ) ;
#148 = CC_DESIGN_APPROVAL ( #23, ( #189 ) ) ;
#149 = FACE_OUTER_BOUND ( 'NONE', #13, .T. ) ;
#150 = DIRECTION ( 'NONE',  ( 0.000000000000000000, 0.000000000000000000, -1.000000000000000000 ) ) ;
#151 = ADVANCED_FACE ( 'NONE', ( #219 ), #120, .F. ) ;
#152 = CARTESIAN_POINT ( 'NONE',  ( 0.000000000000000000, 0.000000000000000000, 7.000000000000000000 ) ) ;
#153 = CC_DESIGN_APPROVAL ( #286, ( #288 ) ) ;
#154 = VECTOR ( 'NONE', #16, 1000.000000000000000 ) ;
#155 = CARTESIAN_POINT ( 'NONE',  ( 0.000000000000000000, 0.000000000000000000, 257.0000000000000000 ) ) ;
#156 = ORIENTED_EDGE ( 'NONE', *, *, #48, .T. ) ;
#157 = CARTESIAN_POINT ( 'NONE',  ( 6.450000000000000178, 0.000000000000000000, 7.000000000000006217 ) ) ;
#158 = ORIENTED_EDGE ( 'NONE', *, *, #171, .F. ) ;
#159 = CC_DESIGN_DATE_AND_TIME_ASSIGNMENT ( #47, #142, ( #189 ) ) ;
#160 = ORIENTED_EDGE ( 'NONE', *, *, #136, .T. ) ;
#161 = APPROVAL_PERSON_ORGANIZATION ( #184, #289, #265 ) ;
#162 = APPLICATION_CONTEXT ( 'configuration controlled 3d designs of mechanical parts and assemblies' ) ;
#163 = PERSON_AND_ORGANIZATION ( #212, #242 ) ;
#164 = DIRECTION ( 'NONE',  ( 0.000000000000000000, 0.000000000000000000, 1.000000000000000000 ) ) ;
#165 = AXIS2_PLACEMENT_3D ( 'NONE', #112, #259, #113 ) ;
#166 = CYLINDRICAL_SURFACE ( 'NONE', #127, 9.000000000000000000 ) ;
#167 = COORDINATED_UNIVERSAL_TIME_OFFSET ( 1, 0, .AHEAD. ) ;
#168 = SHAPE_DEFINITION_REPRESENTATION ( #287, #109 ) ;
#169 = AXIS2_PLACEMENT_3D ( 'NONE', #65, #164, #263 ) ;
#170 = PERSON_AND_ORGANIZATION_ROLE ( 'creator' ) ;
#171 = EDGE_CURVE ( 'NONE', #37, #24, #31, .T. ) ;
#172 = VECTOR ( 'NONE', #304, 1000.000000000000000 ) ;
#173 = ORIENTED_EDGE ( 'NONE', *, *, #237, .T. ) ;
#174 = DIRECTION ( 'NONE',  ( 1.000000000000000000, 0.000000000000000000, 0.000000000000000000 ) ) ;
#175 = ADVANCED_FACE ( 'NONE', ( #284 ), #66, .T. ) ;
#176 = DIRECTION ( 'NONE',  ( 0.000000000000000000, 0.000000000000000000, 1.000000000000000000 ) ) ;
#177 = CARTESIAN_POINT ( 'NONE',  ( 0.000000000000000000, 0.000000000000000000, 0.000000000000000000 ) ) ;
#178 = ORIENTED_EDGE ( 'NONE', *, *, #237, .F. ) ;
#179 = DIRECTION ( 'NONE',  ( 1.000000000000000000, 0.000000000000000000, -0.000000000000000000 ) ) ;
#180 = EDGE_LOOP ( 'NONE', ( #29, #11, #276, #76 ) ) ;
#181 = CC_DESIGN_PERSON_AND_ORGANIZATION_ASSIGNMENT ( #269, #3, ( #189 ) ) ;
#182 = DIRECTION ( 'NONE',  ( -0.000000000000000000, -0.000000000000000000, -1.000000000000000000 ) ) ;
#183 = ORIENTED_EDGE ( 'NONE', *, *, #86, .F. ) ;
#184 = PERSON_AND_ORGANIZATION ( #212, #242 ) ;
#185 = DIRECTION ( 'NONE',  ( 0.000000000000000000, 0.000000000000000000, 1.000000000000000000 ) ) ;
#186 = DIRECTION ( 'NONE',  ( -1.000000000000000000, 0.000000000000000000, 0.000000000000000000 ) ) ;
#187 = LOCAL_TIME ( 11, 28, 30.00000000000000000, #46 ) ;
#188 =( NAMED_UNIT ( * ) PLANE_ANGLE_UNIT ( ) SI_UNIT ( $, .RADIAN. ) );
#189 = PRODUCT_DEFINITION ( 'NEZNÁMÝ', '', #288, #253 ) ;
#190 = COORDINATED_UNIVERSAL_TIME_OFFSET ( 1, 0, .AHEAD. ) ;
#191 = APPROVAL_STATUS ( 'not_yet_approved' ) ;
#192 = VERTEX_POINT ( 'NONE', #40 ) ;
#193 = CARTESIAN_POINT ( 'NONE',  ( 0.000000000000000000, 0.000000000000000000, 257.0000000000000000 ) ) ;
#194 = AXIS2_PLACEMENT_3D ( 'NONE', #193, #247, #272 ) ;
#195 = CIRCLE ( 'NONE', #303, 0.1999999999999996503 ) ;
#196 = ORIENTED_EDGE ( 'NONE', *, *, #81, .T. ) ;
#197 = CARTESIAN_POINT ( 'NONE',  ( 0.000000000000000000, 0.000000000000000000, 257.0000000000000000 ) ) ;
#198 = UNCERTAINTY_MEASURE_WITH_UNIT (LENGTH_MEASURE( 1.000000000000000082E-05 ), #232, 'distance_accuracy_value', 'NONE');
#199 = DIRECTION ( 'NONE',  ( 0.000000000000000000, 0.000000000000000000, 1.000000000000000000 ) ) ;
#200 = ORIENTED_EDGE ( 'NONE', *, *, #8, .F. ) ;
#201 = CARTESIAN_POINT ( 'NONE',  ( 9.000000000000000000, 1.102182119232617714E-15, 7.000000000000000000 ) ) ;
#202 = CIRCLE ( 'NONE', #169, 6.250000000000000000 ) ;
#203 = ORIENTED_EDGE ( 'NONE', *, *, #8, .T. ) ;
#204 = FACE_OUTER_BOUND ( 'NONE', #101, .T. ) ;
#205 = CARTESIAN_POINT ( 'NONE',  ( -6.250000000000000000, 0.000000000000000000, 7.200000000000011724 ) ) ;
#206 = CARTESIAN_POINT ( 'NONE',  ( 0.000000000000000000, 0.000000000000000000, 7.000000000000000000 ) ) ;
#207 = ORIENTED_EDGE ( 'NONE', *, *, #128, .T. ) ;
#208 = APPLICATION_PROTOCOL_DEFINITION ( 'international standard', 'config_control_design', 1994, #162 ) ;
#209 = ADVANCED_FACE ( 'NONE', ( #110 ), #300, .T. ) ;
#210 = AXIS2_PLACEMENT_3D ( 'NONE', #155, #220, #100 ) ;
#211 = FACE_OUTER_BOUND ( 'NONE', #255, .T. ) ;
#212 = PERSON ( 'NEURÈENÝ', 'NEURÈENÝ', 'NEURÈENÝ', ('NEURÈENÝ'), ('NEURÈENÝ'), ('NEURÈENÝ') ) ;
#213 = CARTESIAN_POINT ( 'NONE',  ( 0.000000000000000000, 0.000000000000000000, 257.0000000000000000 ) ) ;
#214 = ADVANCED_FACE ( 'NONE', ( #234 ), #166, .T. ) ;
#215 = APPROVAL_DATE_TIME ( #44, #23 ) ;
#216 = MANIFOLD_SOLID_BREP ( 'Zaoblit1', #285 ) ;
#217 = PERSON_AND_ORGANIZATION ( #212, #242 ) ;
#218 = AXIS2_PLACEMENT_3D ( 'NONE', #89, #283, #90 ) ;
#219 = FACE_OUTER_BOUND ( 'NONE', #80, .T. ) ;
#220 = DIRECTION ( 'NONE',  ( 0.000000000000000000, 0.000000000000000000, 1.000000000000000000 ) ) ;
#221 = CIRCLE ( 'NONE', #73, 9.000000000000000000 ) ;
#222 = FACE_OUTER_BOUND ( 'NONE', #243, .T. ) ;
#223 = CARTESIAN_POINT ( 'NONE',  ( 6.250000000000000000, 7.654042494670957606E-16, 257.0000000000000000 ) ) ;
#224 = ORIENTED_EDGE ( 'NONE', *, *, #305, .T. ) ;
#225 = DIRECTION ( 'NONE',  ( -0.000000000000000000, -0.000000000000000000, -1.000000000000000000 ) ) ;
#226 = LOCAL_TIME ( 11, 28, 30.00000000000000000, #264 ) ;
#227 = CARTESIAN_POINT ( 'NONE',  ( -9.000000000000000000, 0.000000000000000000, 7.000000000000000000 ) ) ;
#228 = AXIS2_PLACEMENT_3D ( 'NONE', #251, #199, #104 ) ;
#229 = CARTESIAN_POINT ( 'NONE',  ( -6.250000000000000000, 0.000000000000000000, 257.0000000000000000 ) ) ;
#230 = EDGE_LOOP ( 'NONE', ( #103, #60, #203, #173 ) ) ;
#231 = EDGE_CURVE ( 'NONE', #297, #24, #202, .T. ) ;
#232 =( LENGTH_UNIT ( ) NAMED_UNIT ( * ) SI_UNIT ( .MILLI., .METRE. ) );
#233 = DIRECTION ( 'NONE',  ( -0.000000000000000000, -0.000000000000000000, -1.000000000000000000 ) ) ;
#234 = FACE_OUTER_BOUND ( 'NONE', #230, .T. ) ;
#235 = CIRCLE ( 'NONE', #140, 9.000000000000000000 ) ;
#236 = CARTESIAN_POINT ( 'NONE',  ( 6.250000000000000000, 7.654042494670957606E-16, 7.200000000000011724 ) ) ;
#237 = EDGE_CURVE ( 'NONE', #192, #125, #7, .T. ) ;
#238 = DATE_AND_TIME ( #119, #282 ) ;
#239 = LOCAL_TIME ( 11, 28, 30.00000000000000000, #96 ) ;
#240 = APPROVAL_ROLE ( '' ) ;
#241 = CALENDAR_DATE ( 2022, 20, 6 ) ;
#242 = ORGANIZATION ( 'NEURÈENÝ', 'NEURÈENÝ', '' ) ;
#243 = EDGE_LOOP ( 'NONE', ( #56, #252 ) ) ;
#244 = CYLINDRICAL_SURFACE ( 'NONE', #194, 6.250000000000000000 ) ;
#245 = CARTESIAN_POINT ( 'NONE',  ( -6.450000000000000178, 7.898971854500428692E-16, 7.000000000000006217 ) ) ;
#246 = EDGE_LOOP ( 'NONE', ( #108, #196, #258, #200 ) ) ;
#247 = DIRECTION ( 'NONE',  ( -0.000000000000000000, -0.000000000000000000, -1.000000000000000000 ) ) ;
#248 = AXIS2_PLACEMENT_3D ( 'NONE', #129, #77, #174 ) ;
#249 = AXIS2_PLACEMENT_3D ( 'NONE', #197, #176, #9 ) ;
#250 = ADVANCED_FACE ( 'NONE', ( #211 ), #261, .F. ) ;
#251 = CARTESIAN_POINT ( 'NONE',  ( 0.000000000000000000, 0.000000000000000000, 7.200000000000011724 ) ) ;
#252 = ORIENTED_EDGE ( 'NONE', *, *, #57, .T. ) ;
#253 = DESIGN_CONTEXT ( 'detailed design', #88, 'design' ) ;
#254 = LINE ( 'NONE', #34, #115 ) ;
#255 = EDGE_LOOP ( 'NONE', ( #178, #183 ) ) ;
#256 = DIRECTION ( 'NONE',  ( -0.000000000000000000, -0.000000000000000000, -1.000000000000000000 ) ) ;
#257 =( GEOMETRIC_REPRESENTATION_CONTEXT ( 3 ) GLOBAL_UNCERTAINTY_ASSIGNED_CONTEXT ( ( #198 ) ) GLOBAL_UNIT_ASSIGNED_CONTEXT ( ( #232, #188, #61 ) ) REPRESENTATION_CONTEXT ( 'NONE', 'WORKASPACE' ) );
#258 = ORIENTED_EDGE ( 'NONE', *, *, #86, .T. ) ;
#259 = DIRECTION ( 'NONE',  ( 0.000000000000000000, 0.000000000000000000, 1.000000000000000000 ) ) ;
#260 = PERSON_AND_ORGANIZATION_ROLE ( 'design_owner' ) ;
#261 = PLANE ( 'NONE',  #114 ) ;
#262 = AXIS2_PLACEMENT_3D ( 'NONE', #139, #256, #186 ) ;
#263 = DIRECTION ( 'NONE',  ( 1.000000000000000000, 0.000000000000000000, 0.000000000000000000 ) ) ;
#264 = COORDINATED_UNIVERSAL_TIME_OFFSET ( 1, 0, .AHEAD. ) ;
#265 = APPROVAL_ROLE ( '' ) ;
#266 = APPROVAL_DATE_TIME ( #238, #286 ) ;
#267 = EDGE_CURVE ( 'NONE', #83, #111, #67, .T. ) ;
#268 = AXIS2_PLACEMENT_3D ( 'NONE', #6, #275, #295 ) ;
#269 = PERSON_AND_ORGANIZATION ( #212, #242 ) ;
#270 = CIRCLE ( 'NONE', #249, 6.250000000000000000 ) ;
#271 = APPROVAL_ROLE ( '' ) ;
#272 = DIRECTION ( 'NONE',  ( -1.000000000000000000, 0.000000000000000000, 0.000000000000000000 ) ) ;
#273 = PLANE ( 'NONE',  #19 ) ;
#274 = PRODUCT_RELATED_PRODUCT_CATEGORY ( 'detail', '', ( #22 ) ) ;
#275 = DIRECTION ( 'NONE',  ( 0.000000000000000000, 0.000000000000000000, 1.000000000000000000 ) ) ;
#276 = ORIENTED_EDGE ( 'NONE', *, *, #171, .T. ) ;
#277 = CARTESIAN_POINT ( 'NONE',  ( -6.250000000000000000, 0.000000000000000000, 257.0000000000000000 ) ) ;
#278 = ORIENTED_EDGE ( 'NONE', *, *, #136, .F. ) ;
#279 = DIRECTION ( 'NONE',  ( 1.000000000000000000, 0.000000000000000000, 0.000000000000000000 ) ) ;
#280 = ORIENTED_EDGE ( 'NONE', *, *, #39, .T. ) ;
#281 = DIRECTION ( 'NONE',  ( 1.000000000000000000, 0.000000000000000000, -0.000000000000000000 ) ) ;
#282 = LOCAL_TIME ( 11, 28, 30.00000000000000000, #190 ) ;
#283 = DIRECTION ( 'NONE',  ( 1.224646799147353207E-16, 1.000000000000000000, -0.000000000000000000 ) ) ;
#284 = FACE_OUTER_BOUND ( 'NONE', #180, .T. ) ;
#285 = CLOSED_SHELL ( 'NONE', ( #151, #143, #209, #214, #122, #250, #175, #27, #117 ) ) ;
#286 = APPROVAL ( #191, 'NEURÈENÝ' ) ;
#287 = PRODUCT_DEFINITION_SHAPE ( 'NONE', 'NONE',  #189 ) ;
#288 = PRODUCT_DEFINITION_FORMATION_WITH_SPECIFIED_SOURCE ( 'LIBOVOLNÝ', '', #22, .NOT_KNOWN. ) ;
#289 = APPROVAL ( #306, 'NEURÈENÝ' ) ;
#290 = ORIENTED_EDGE ( 'NONE', *, *, #93, .F. ) ;
#291 = FACE_BOUND ( 'NONE', #97, .T. ) ;
#292 = CC_DESIGN_DATE_AND_TIME_ASSIGNMENT ( #123, #78, ( #145 ) ) ;
#293 = EDGE_LOOP ( 'NONE', ( #105, #280 ) ) ;
#294 = DIRECTION ( 'NONE',  ( 1.000000000000000000, 0.000000000000000000, 0.000000000000000000 ) ) ;
#295 = DIRECTION ( 'NONE',  ( 1.000000000000000000, 0.000000000000000000, 0.000000000000000000 ) ) ;
#296 = CIRCLE ( 'NONE', #228, 6.250000000000000000 ) ;
#297 = VERTEX_POINT ( 'NONE', #236 ) ;
#298 = DIRECTION ( 'NONE',  ( 0.000000000000000000, 0.000000000000000000, 1.000000000000000000 ) ) ;
#299 = ORIENTED_EDGE ( 'NONE', *, *, #231, .F. ) ;
#300 = CYLINDRICAL_SURFACE ( 'NONE', #262, 9.000000000000000000 ) ;
#301 = MECHANICAL_CONTEXT ( 'NONE', #162, 'mechanical' ) ;
#302 = TOROIDAL_SURFACE ( 'NONE', #268, 6.450000000000000178, 0.2000000000000000111 ) ;
#303 = AXIS2_PLACEMENT_3D ( 'NONE', #107, #124, #150 ) ;
#304 = DIRECTION ( 'NONE',  ( -0.000000000000000000, -0.000000000000000000, -1.000000000000000000 ) ) ;
#305 = EDGE_CURVE ( 'NONE', #24, #33, #42, .T. ) ;
#306 = APPROVAL_STATUS ( 'not_yet_approved' ) ;
#307 = CARTESIAN_POINT ( 'NONE',  ( 0.000000000000000000, 0.000000000000000000, 7.000000000000000000 ) ) ;
ENDSEC;
END-ISO-10303-21;
