ISO-10303-21;
HEADER;
FILE_DESCRIPTION (( 'STEP AP203' ),
    '1' );
FILE_NAME ('3def.STEP',
    '2022-06-20T09:19:35',
    ( '' ),
    ( '' ),
    'SwSTEP 2.0',
    'SolidWorks 2019',
    '' );
FILE_SCHEMA (( 'CONFIG_CONTROL_DESIGN' ));
ENDSEC;

DATA;
#1 = DIRECTION ( 'NONE',  ( 0.000000000000000000, 0.000000000000000000, 1.000000000000000000 ) ) ;
#2 = AXIS2_PLACEMENT_3D ( 'NONE', #183, #1, #206 ) ;
#3 = FACE_OUTER_BOUND ( 'NONE', #219, .T. ) ;
#4 =( LENGTH_UNIT ( ) NAMED_UNIT ( * ) SI_UNIT ( .MILLI., .METRE. ) );
#5 =( NAMED_UNIT ( * ) PLANE_ANGLE_UNIT ( ) SI_UNIT ( $, .RADIAN. ) );
#6 = EDGE_CURVE ( 'NONE', #35, #111, #56, .T. ) ;
#7 = ORIENTED_EDGE ( 'NONE', *, *, #37, .T. ) ;
#8 = PERSON_AND_ORGANIZATION ( #142, #302 ) ;
#9 = ORIENTED_EDGE ( 'NONE', *, *, #98, .T. ) ;
#10 = APPROVAL_DATE_TIME ( #110, #69 ) ;
#11 = EDGE_LOOP ( 'NONE', ( #53, #296, #109, #83 ) ) ;
#12 = PERSON_AND_ORGANIZATION_ROLE ( 'creator' ) ;
#13 = CC_DESIGN_PERSON_AND_ORGANIZATION_ASSIGNMENT ( #243, #133, ( #102 ) ) ;
#14 = CARTESIAN_POINT ( 'NONE',  ( 0.000000000000000000, 0.000000000000000000, 0.000000000000000000 ) ) ;
#15 = ORIENTED_EDGE ( 'NONE', *, *, #25, .T. ) ;
#16 = ADVANCED_FACE ( 'NONE', ( #67 ), #138, .T. ) ;
#17 = FACE_BOUND ( 'NONE', #157, .T. ) ;
#18 = CIRCLE ( 'NONE', #178, 10.00000000000000000 ) ;
#19 = CARTESIAN_POINT ( 'NONE',  ( 0.000000000000000000, 0.000000000000000000, 8.000000000000000000 ) ) ;
#20 = APPROVAL_PERSON_ORGANIZATION ( #55, #69, #248 ) ;
#21 = FACE_OUTER_BOUND ( 'NONE', #269, .T. ) ;
#22 = DIRECTION ( 'NONE',  ( 0.000000000000000000, 0.000000000000000000, 1.000000000000000000 ) ) ;
#23 = CARTESIAN_POINT ( 'NONE',  ( 0.000000000000000000, 0.000000000000000000, 808.0000000000000000 ) ) ;
#24 = DIRECTION ( 'NONE',  ( 1.000000000000000000, 0.000000000000000000, -0.000000000000000000 ) ) ;
#25 = EDGE_CURVE ( 'NONE', #272, #40, #160, .T. ) ;
#26 = PLANE ( 'NONE',  #186 ) ;
#27 = PLANE ( 'NONE',  #169 ) ;
#28 = LOCAL_TIME ( 11, 19, 35.00000000000000000, #274 ) ;
#29 = VERTEX_POINT ( 'NONE', #66 ) ;
#30 = ORIENTED_EDGE ( 'NONE', *, *, #81, .F. ) ;
#31 = APPROVAL_STATUS ( 'not_yet_approved' ) ;
#32 = AXIS2_PLACEMENT_3D ( 'NONE', #43, #181, #306 ) ;
#33 = VERTEX_POINT ( 'NONE', #86 ) ;
#34 = COORDINATED_UNIVERSAL_TIME_OFFSET ( 1, 0, .AHEAD. ) ;
#35 = VERTEX_POINT ( 'NONE', #162 ) ;
#36 = PERSON_AND_ORGANIZATION ( #142, #302 ) ;
#37 = EDGE_CURVE ( 'NONE', #299, #272, #96, .T. ) ;
#38 = EDGE_LOOP ( 'NONE', ( #60, #199, #275, #155 ) ) ;
#39 = TOROIDAL_SURFACE ( 'NONE', #289, 10.20000000000000107, 0.2000000000000000111 ) ;
#40 = VERTEX_POINT ( 'NONE', #207 ) ;
#41 = CARTESIAN_POINT ( 'NONE',  ( 0.000000000000000000, 0.000000000000000000, 808.0000000000000000 ) ) ;
#42 = DIRECTION ( 'NONE',  ( 0.000000000000000000, 0.000000000000000000, 1.000000000000000000 ) ) ;
#43 = CARTESIAN_POINT ( 'NONE',  ( -10.20000000000000107, 1.249139735130300365E-15, 8.199999999999985079 ) ) ;
#44 = CARTESIAN_POINT ( 'NONE',  ( -10.00000000000000000, 0.000000000000000000, 808.0000000000000000 ) ) ;
#45 = FACE_OUTER_BOUND ( 'NONE', #200, .T. ) ;
#46 = ADVANCED_FACE ( 'NONE', ( #115 ), #305, .T. ) ;
#47 = CARTESIAN_POINT ( 'NONE',  ( 13.00000000000000178, 1.592040838891559293E-15, 8.000000000000000000 ) ) ;
#48 = DIRECTION ( 'NONE',  ( 1.000000000000000000, 0.000000000000000000, -0.000000000000000000 ) ) ;
#49 = DIRECTION ( 'NONE',  ( 1.000000000000000000, 0.000000000000000000, 0.000000000000000000 ) ) ;
#50 = CARTESIAN_POINT ( 'NONE',  ( 0.000000000000000000, 0.000000000000000000, 808.0000000000000000 ) ) ;
#51 = AXIS2_PLACEMENT_3D ( 'NONE', #19, #255, #184 ) ;
#52 = CC_DESIGN_APPROVAL ( #294, ( #102 ) ) ;
#53 = ORIENTED_EDGE ( 'NONE', *, *, #233, .F. ) ;
#54 = APPROVAL_STATUS ( 'not_yet_approved' ) ;
#55 = PERSON_AND_ORGANIZATION ( #142, #302 ) ;
#56 = CIRCLE ( 'NONE', #164, 13.00000000000000178 ) ;
#57 = ORIENTED_EDGE ( 'NONE', *, *, #137, .F. ) ;
#58 = LOCAL_TIME ( 11, 19, 35.00000000000000000, #250 ) ;
#59 = APPROVAL_DATE_TIME ( #171, #266 ) ;
#60 = ORIENTED_EDGE ( 'NONE', *, *, #180, .F. ) ;
#61 = LOCAL_TIME ( 11, 19, 35.00000000000000000, #77 ) ;
#62 = CARTESIAN_POINT ( 'NONE',  ( -13.00000000000000178, 0.000000000000000000, 8.000000000000000000 ) ) ;
#63 = TOROIDAL_SURFACE ( 'NONE', #217, 10.20000000000000107, 0.2000000000000000111 ) ;
#64 = CARTESIAN_POINT ( 'NONE',  ( 0.000000000000000000, 0.000000000000000000, 8.000000000000000000 ) ) ;
#65 = DIRECTION ( 'NONE',  ( 0.000000000000000000, 0.000000000000000000, 1.000000000000000000 ) ) ;
#66 = CARTESIAN_POINT ( 'NONE',  ( -10.00000000000000000, 0.000000000000000000, 808.0000000000000000 ) ) ;
#67 = FACE_OUTER_BOUND ( 'NONE', #38, .T. ) ;
#68 = AXIS2_PLACEMENT_3D ( 'NONE', #226, #256, #307 ) ;
#69 = APPROVAL ( #54, 'NEURÈENÝ' ) ;
#70 = DIRECTION ( 'NONE',  ( 1.000000000000000000, 0.000000000000000000, 0.000000000000000000 ) ) ;
#71 = CYLINDRICAL_SURFACE ( 'NONE', #258, 10.00000000000000000 ) ;
#72 = CARTESIAN_POINT ( 'NONE',  ( 0.000000000000000000, 0.000000000000000000, 0.000000000000000000 ) ) ;
#73 = CC_DESIGN_APPROVAL ( #69, ( #303 ) ) ;
#74 = CARTESIAN_POINT ( 'NONE',  ( -10.00000000000000000, 0.000000000000000000, 8.199999999999985079 ) ) ;
#75 = PERSON_AND_ORGANIZATION ( #142, #302 ) ;
#76 = EDGE_CURVE ( 'NONE', #33, #299, #284, .T. ) ;
#77 = COORDINATED_UNIVERSAL_TIME_OFFSET ( 1, 0, .AHEAD. ) ;
#78 = ORIENTED_EDGE ( 'NONE', *, *, #93, .T. ) ;
#79 = PERSON_AND_ORGANIZATION_ROLE ( 'design_owner' ) ;
#80 = EDGE_LOOP ( 'NONE', ( #78, #244 ) ) ;
#81 = EDGE_CURVE ( 'NONE', #29, #299, #257, .T. ) ;
#82 = APPROVAL_ROLE ( '' ) ;
#83 = ORIENTED_EDGE ( 'NONE', *, *, #213, .F. ) ;
#84 = APPROVAL_PERSON_ORGANIZATION ( #8, #294, #271 ) ;
#85 = ORIENTED_EDGE ( 'NONE', *, *, #76, .F. ) ;
#86 = CARTESIAN_POINT ( 'NONE',  ( 10.00000000000000000, 1.224646799147353256E-15, 8.199999999999985079 ) ) ;
#87 = CC_DESIGN_SECURITY_CLASSIFICATION ( #125, ( #102 ) ) ;
#88 = AXIS2_PLACEMENT_3D ( 'NONE', #279, #185, #141 ) ;
#89 = AXIS2_PLACEMENT_3D ( 'NONE', #64, #229, #203 ) ;
#90 = DIRECTION ( 'NONE',  ( -1.000000000000000000, 0.000000000000000000, 0.000000000000000000 ) ) ;
#91 = CARTESIAN_POINT ( 'NONE',  ( 0.000000000000000000, 0.000000000000000000, 8.000000000000000000 ) ) ;
#92 = CARTESIAN_POINT ( 'NONE',  ( 0.000000000000000000, 0.000000000000000000, 8.199999999999985079 ) ) ;
#93 = EDGE_CURVE ( 'NONE', #152, #242, #159, .T. ) ;
#94 = AXIS2_PLACEMENT_3D ( 'NONE', #72, #145, #70 ) ;
#95 = CARTESIAN_POINT ( 'NONE',  ( 10.00000000000000000, 1.224646799147353256E-15, 808.0000000000000000 ) ) ;
#96 = CIRCLE ( 'NONE', #32, 0.2000000000000005107 ) ;
#97 = CARTESIAN_POINT ( 'NONE',  ( 0.000000000000000000, 0.000000000000000000, 8.000000000000000000 ) ) ;
#98 = EDGE_CURVE ( 'NONE', #33, #40, #204, .T. ) ;
#99 = FACE_OUTER_BOUND ( 'NONE', #127, .T. ) ;
#100 = ADVANCED_BREP_SHAPE_REPRESENTATION ( '3def', ( #215, #103 ), #192 ) ;
#101 = CARTESIAN_POINT ( 'NONE',  ( 0.000000000000000000, 0.000000000000000000, 808.0000000000000000 ) ) ;
#102 = PRODUCT_DEFINITION_FORMATION_WITH_SPECIFIED_SOURCE ( 'LIBOVOLNÝ', '', #286, .NOT_KNOWN. ) ;
#103 = AXIS2_PLACEMENT_3D ( 'NONE', #119, #22, #293 ) ;
#104 =( NAMED_UNIT ( * ) SI_UNIT ( $, .STERADIAN. ) SOLID_ANGLE_UNIT ( ) );
#105 = APPLICATION_CONTEXT ( 'configuration controlled 3d designs of mechanical parts and assemblies' ) ;
#106 = PERSON_AND_ORGANIZATION ( #142, #302 ) ;
#107 = CIRCLE ( 'NONE', #182, 10.00000000000000000 ) ;
#108 = PERSON_AND_ORGANIZATION_ROLE ( 'creator' ) ;
#109 = ORIENTED_EDGE ( 'NONE', *, *, #208, .T. ) ;
#110 = DATE_AND_TIME ( #174, #61 ) ;
#111 = VERTEX_POINT ( 'NONE', #277 ) ;
#112 = CYLINDRICAL_SURFACE ( 'NONE', #51, 13.00000000000000178 ) ;
#113 = DIRECTION ( 'NONE',  ( 1.000000000000000000, 0.000000000000000000, 0.000000000000000000 ) ) ;
#114 = VECTOR ( 'NONE', #187, 1000.000000000000000 ) ;
#115 = FACE_OUTER_BOUND ( 'NONE', #295, .T. ) ;
#116 = DIRECTION ( 'NONE',  ( 0.000000000000000000, 0.000000000000000000, 1.000000000000000000 ) ) ;
#117 = EDGE_CURVE ( 'NONE', #246, #33, #161, .T. ) ;
#118 = CARTESIAN_POINT ( 'NONE',  ( 13.00000000000000178, 1.592040838891559293E-15, 8.000000000000000000 ) ) ;
#119 = CARTESIAN_POINT ( 'NONE',  ( 0.000000000000000000, 0.000000000000000000, 0.000000000000000000 ) ) ;
#120 = CARTESIAN_POINT ( 'NONE',  ( 10.00000000000000000, 1.224646799147353256E-15, 808.0000000000000000 ) ) ;
#121 = CIRCLE ( 'NONE', #297, 13.00000000000000178 ) ;
#122 = VECTOR ( 'NONE', #143, 1000.000000000000000 ) ;
#123 = DIRECTION ( 'NONE',  ( 0.000000000000000000, 0.000000000000000000, 1.000000000000000000 ) ) ;
#124 = CC_DESIGN_PERSON_AND_ORGANIZATION_ASSIGNMENT ( #156, #79, ( #286 ) ) ;
#125 = SECURITY_CLASSIFICATION ( '', '', #195 ) ;
#126 = APPROVAL_STATUS ( 'not_yet_approved' ) ;
#127 = EDGE_LOOP ( 'NONE', ( #177, #249 ) ) ;
#128 = CALENDAR_DATE ( 2022, 20, 6 ) ;
#129 = ORIENTED_EDGE ( 'NONE', *, *, #98, .F. ) ;
#130 = ADVANCED_FACE ( 'NONE', ( #165 ), #112, .T. ) ;
#131 = APPROVAL_DATE_TIME ( #196, #294 ) ;
#132 = COORDINATED_UNIVERSAL_TIME_OFFSET ( 1, 0, .AHEAD. ) ;
#133 = PERSON_AND_ORGANIZATION_ROLE ( 'design_supplier' ) ;
#134 = ORIENTED_EDGE ( 'NONE', *, *, #37, .F. ) ;
#135 = AXIS2_PLACEMENT_3D ( 'NONE', #97, #191, #49 ) ;
#136 = CARTESIAN_POINT ( 'NONE',  ( 0.000000000000000000, 0.000000000000000000, 808.0000000000000000 ) ) ;
#137 = EDGE_CURVE ( 'NONE', #246, #29, #153, .T. ) ;
#138 = CYLINDRICAL_SURFACE ( 'NONE', #290, 13.00000000000000178 ) ;
#139 = DIRECTION ( 'NONE',  ( 0.000000000000000000, 0.000000000000000000, 1.000000000000000000 ) ) ;
#140 = ADVANCED_FACE ( 'NONE', ( #17, #232 ), #231, .T. ) ;
#141 = DIRECTION ( 'NONE',  ( 0.000000000000000000, 0.000000000000000000, -1.000000000000000000 ) ) ;
#142 = PERSON ( 'NEURÈENÝ', 'NEURÈENÝ', 'NEURÈENÝ', ('NEURÈENÝ'), ('NEURÈENÝ'), ('NEURÈENÝ') ) ;
#143 = DIRECTION ( 'NONE',  ( -0.000000000000000000, -0.000000000000000000, -1.000000000000000000 ) ) ;
#144 = DIRECTION ( 'NONE',  ( -0.000000000000000000, -0.000000000000000000, -1.000000000000000000 ) ) ;
#145 = DIRECTION ( 'NONE',  ( 0.000000000000000000, 0.000000000000000000, 1.000000000000000000 ) ) ;
#146 = EDGE_CURVE ( 'NONE', #299, #33, #18, .T. ) ;
#147 = CARTESIAN_POINT ( 'NONE',  ( 0.000000000000000000, 0.000000000000000000, 8.000000000000000000 ) ) ;
#148 = CALENDAR_DATE ( 2022, 20, 6 ) ;
#149 = ORIENTED_EDGE ( 'NONE', *, *, #137, .T. ) ;
#150 = ADVANCED_FACE ( 'NONE', ( #21 ), #39, .F. ) ;
#151 = DATE_TIME_ROLE ( 'creation_date' ) ;
#152 = VERTEX_POINT ( 'NONE', #62 ) ;
#153 = CIRCLE ( 'NONE', #259, 10.00000000000000000 ) ;
#154 = DATE_AND_TIME ( #288, #58 ) ;
#155 = ORIENTED_EDGE ( 'NONE', *, *, #6, .T. ) ;
#156 = PERSON_AND_ORGANIZATION ( #142, #302 ) ;
#157 = EDGE_LOOP ( 'NONE', ( #179, #15 ) ) ;
#158 = CARTESIAN_POINT ( 'NONE',  ( 0.000000000000000000, 0.000000000000000000, 8.199999999999985079 ) ) ;
#159 = CIRCLE ( 'NONE', #254, 13.00000000000000178 ) ;
#160 = CIRCLE ( 'NONE', #89, 10.20000000000000107 ) ;
#161 = LINE ( 'NONE', #95, #114 ) ;
#162 = CARTESIAN_POINT ( 'NONE',  ( -13.00000000000000178, 0.000000000000000000, 0.000000000000000000 ) ) ;
#163 = DIRECTION ( 'NONE',  ( 1.000000000000000000, 0.000000000000000000, 0.000000000000000000 ) ) ;
#164 = AXIS2_PLACEMENT_3D ( 'NONE', #14, #139, #113 ) ;
#165 = FACE_OUTER_BOUND ( 'NONE', #11, .T. ) ;
#166 = APPROVAL_PERSON_ORGANIZATION ( #75, #266, #82 ) ;
#167 = CC_DESIGN_PERSON_AND_ORGANIZATION_ASSIGNMENT ( #36, #108, ( #102 ) ) ;
#168 = DIRECTION ( 'NONE',  ( 0.000000000000000000, 0.000000000000000000, 1.000000000000000000 ) ) ;
#169 = AXIS2_PLACEMENT_3D ( 'NONE', #189, #123, #24 ) ;
#170 = CC_DESIGN_PERSON_AND_ORGANIZATION_ASSIGNMENT ( #106, #176, ( #125 ) ) ;
#171 = DATE_AND_TIME ( #148, #28 ) ;
#172 = ADVANCED_FACE ( 'NONE', ( #45 ), #63, .F. ) ;
#173 = ORIENTED_EDGE ( 'NONE', *, *, #228, .F. ) ;
#174 = CALENDAR_DATE ( 2022, 20, 6 ) ;
#175 = ORIENTED_EDGE ( 'NONE', *, *, #25, .F. ) ;
#176 = PERSON_AND_ORGANIZATION_ROLE ( 'classification_officer' ) ;
#177 = ORIENTED_EDGE ( 'NONE', *, *, #6, .F. ) ;
#178 = AXIS2_PLACEMENT_3D ( 'NONE', #92, #42, #260 ) ;
#179 = ORIENTED_EDGE ( 'NONE', *, *, #221, .T. ) ;
#180 = EDGE_CURVE ( 'NONE', #242, #111, #234, .T. ) ;
#181 = DIRECTION ( 'NONE',  ( 1.224646799147353207E-16, 1.000000000000000000, -0.000000000000000000 ) ) ;
#182 = AXIS2_PLACEMENT_3D ( 'NONE', #50, #240, #263 ) ;
#183 = CARTESIAN_POINT ( 'NONE',  ( 0.000000000000000000, 0.000000000000000000, 8.199999999999985079 ) ) ;
#184 = DIRECTION ( 'NONE',  ( -1.000000000000000000, 0.000000000000000000, 0.000000000000000000 ) ) ;
#185 = DIRECTION ( 'NONE',  ( 0.000000000000000000, -1.000000000000000000, 0.000000000000000000 ) ) ;
#186 = AXIS2_PLACEMENT_3D ( 'NONE', #101, #241, #48 ) ;
#187 = DIRECTION ( 'NONE',  ( -0.000000000000000000, -0.000000000000000000, -1.000000000000000000 ) ) ;
#188 = DIRECTION ( 'NONE',  ( 1.000000000000000000, 0.000000000000000000, 0.000000000000000000 ) ) ;
#189 = CARTESIAN_POINT ( 'NONE',  ( 0.000000000000000000, 0.000000000000000000, 0.000000000000000000 ) ) ;
#190 = CC_DESIGN_DATE_AND_TIME_ASSIGNMENT ( #220, #298, ( #125 ) ) ;
#191 = DIRECTION ( 'NONE',  ( -0.000000000000000000, -0.000000000000000000, -1.000000000000000000 ) ) ;
#192 =( GEOMETRIC_REPRESENTATION_CONTEXT ( 3 ) GLOBAL_UNCERTAINTY_ASSIGNED_CONTEXT ( ( #201 ) ) GLOBAL_UNIT_ASSIGNED_CONTEXT ( ( #4, #5, #104 ) ) REPRESENTATION_CONTEXT ( 'NONE', 'WORKASPACE' ) );
#193 = PERSON_AND_ORGANIZATION ( #142, #302 ) ;
#194 = MECHANICAL_CONTEXT ( 'NONE', #273, 'mechanical' ) ;
#195 = SECURITY_CLASSIFICATION_LEVEL ( 'unclassified' ) ;
#196 = DATE_AND_TIME ( #245, #227 ) ;
#197 = ORIENTED_EDGE ( 'NONE', *, *, #117, .T. ) ;
#198 = ADVANCED_FACE ( 'NONE', ( #237 ), #71, .T. ) ;
#199 = ORIENTED_EDGE ( 'NONE', *, *, #93, .F. ) ;
#200 = EDGE_LOOP ( 'NONE', ( #134, #85, #9, #175 ) ) ;
#201 = UNCERTAINTY_MEASURE_WITH_UNIT (LENGTH_MEASURE( 1.000000000000000082E-05 ), #4, 'distance_accuracy_value', 'NONE');
#202 = CC_DESIGN_APPROVAL ( #266, ( #125 ) ) ;
#203 = DIRECTION ( 'NONE',  ( 1.000000000000000000, 0.000000000000000000, 0.000000000000000000 ) ) ;
#204 = CIRCLE ( 'NONE', #88, 0.2000000000000005107 ) ;
#205 = DIRECTION ( 'NONE',  ( -0.000000000000000000, -0.000000000000000000, -1.000000000000000000 ) ) ;
#206 = DIRECTION ( 'NONE',  ( 1.000000000000000000, 0.000000000000000000, 0.000000000000000000 ) ) ;
#207 = CARTESIAN_POINT ( 'NONE',  ( 10.20000000000000107, 0.000000000000000000, 7.999999999999992895 ) ) ;
#208 = EDGE_CURVE ( 'NONE', #111, #35, #225, .T. ) ;
#209 = CLOSED_SHELL ( 'NONE', ( #150, #198, #130, #16, #140, #287, #46, #253, #172 ) ) ;
#210 = AXIS2_PLACEMENT_3D ( 'NONE', #136, #304, #281 ) ;
#211 = DIRECTION ( 'NONE',  ( 1.000000000000000000, 0.000000000000000000, 0.000000000000000000 ) ) ;
#212 = DIRECTION ( 'NONE',  ( -0.000000000000000000, -0.000000000000000000, -1.000000000000000000 ) ) ;
#213 = EDGE_CURVE ( 'NONE', #152, #35, #262, .T. ) ;
#214 = DIRECTION ( 'NONE',  ( 1.000000000000000000, 0.000000000000000000, 0.000000000000000000 ) ) ;
#215 = MANIFOLD_SOLID_BREP ( 'Zaoblit1', #209 ) ;
#216 = CARTESIAN_POINT ( 'NONE',  ( -10.20000000000000107, 1.249139735130300365E-15, 7.999999999999992895 ) ) ;
#217 = AXIS2_PLACEMENT_3D ( 'NONE', #285, #261, #211 ) ;
#218 = ORIENTED_EDGE ( 'NONE', *, *, #146, .F. ) ;
#219 = EDGE_LOOP ( 'NONE', ( #270, #149 ) ) ;
#220 = DATE_AND_TIME ( #128, #300 ) ;
#221 = EDGE_CURVE ( 'NONE', #40, #272, #265, .T. ) ;
#222 = EDGE_LOOP ( 'NONE', ( #57, #197, #276, #30 ) ) ;
#223 = APPLICATION_PROTOCOL_DEFINITION ( 'international standard', 'config_control_design', 1994, #105 ) ;
#224 = ORIENTED_EDGE ( 'NONE', *, *, #146, .T. ) ;
#225 = CIRCLE ( 'NONE', #94, 13.00000000000000178 ) ;
#226 = CARTESIAN_POINT ( 'NONE',  ( 0.000000000000000000, 0.000000000000000000, 8.000000000000000000 ) ) ;
#227 = LOCAL_TIME ( 11, 19, 35.00000000000000000, #34 ) ;
#228 = EDGE_CURVE ( 'NONE', #29, #246, #107, .T. ) ;
#229 = DIRECTION ( 'NONE',  ( -0.000000000000000000, -0.000000000000000000, -1.000000000000000000 ) ) ;
#230 = DIRECTION ( 'NONE',  ( 1.000000000000000000, 0.000000000000000000, 0.000000000000000000 ) ) ;
#231 = PLANE ( 'NONE',  #68 ) ;
#232 = FACE_OUTER_BOUND ( 'NONE', #80, .T. ) ;
#233 = EDGE_CURVE ( 'NONE', #242, #152, #121, .T. ) ;
#234 = LINE ( 'NONE', #47, #236 ) ;
#235 = VECTOR ( 'NONE', #282, 1000.000000000000000 ) ;
#236 = VECTOR ( 'NONE', #144, 1000.000000000000000 ) ;
#237 = FACE_OUTER_BOUND ( 'NONE', #222, .T. ) ;
#238 = CC_DESIGN_PERSON_AND_ORGANIZATION_ASSIGNMENT ( #193, #12, ( #303 ) ) ;
#239 = CARTESIAN_POINT ( 'NONE',  ( -13.00000000000000178, 0.000000000000000000, 8.000000000000000000 ) ) ;
#240 = DIRECTION ( 'NONE',  ( 0.000000000000000000, 0.000000000000000000, 1.000000000000000000 ) ) ;
#241 = DIRECTION ( 'NONE',  ( 0.000000000000000000, 0.000000000000000000, 1.000000000000000000 ) ) ;
#242 = VERTEX_POINT ( 'NONE', #118 ) ;
#243 = PERSON_AND_ORGANIZATION ( #142, #302 ) ;
#244 = ORIENTED_EDGE ( 'NONE', *, *, #233, .T. ) ;
#245 = CALENDAR_DATE ( 2022, 20, 6 ) ;
#246 = VERTEX_POINT ( 'NONE', #120 ) ;
#247 = CC_DESIGN_DATE_AND_TIME_ASSIGNMENT ( #154, #151, ( #303 ) ) ;
#248 = APPROVAL_ROLE ( '' ) ;
#249 = ORIENTED_EDGE ( 'NONE', *, *, #208, .F. ) ;
#250 = COORDINATED_UNIVERSAL_TIME_OFFSET ( 1, 0, .AHEAD. ) ;
#251 = ORIENTED_EDGE ( 'NONE', *, *, #117, .F. ) ;
#252 = DIRECTION ( 'NONE',  ( 0.000000000000000000, 0.000000000000000000, 1.000000000000000000 ) ) ;
#253 = ADVANCED_FACE ( 'NONE', ( #3 ), #26, .T. ) ;
#254 = AXIS2_PLACEMENT_3D ( 'NONE', #278, #65, #230 ) ;
#255 = DIRECTION ( 'NONE',  ( -0.000000000000000000, -0.000000000000000000, -1.000000000000000000 ) ) ;
#256 = DIRECTION ( 'NONE',  ( 0.000000000000000000, 0.000000000000000000, 1.000000000000000000 ) ) ;
#257 = LINE ( 'NONE', #44, #122 ) ;
#258 = AXIS2_PLACEMENT_3D ( 'NONE', #23, #212, #264 ) ;
#259 = AXIS2_PLACEMENT_3D ( 'NONE', #41, #116, #163 ) ;
#260 = DIRECTION ( 'NONE',  ( 1.000000000000000000, 0.000000000000000000, 0.000000000000000000 ) ) ;
#261 = DIRECTION ( 'NONE',  ( 0.000000000000000000, 0.000000000000000000, 1.000000000000000000 ) ) ;
#262 = LINE ( 'NONE', #239, #235 ) ;
#263 = DIRECTION ( 'NONE',  ( 1.000000000000000000, 0.000000000000000000, 0.000000000000000000 ) ) ;
#264 = DIRECTION ( 'NONE',  ( -1.000000000000000000, 0.000000000000000000, 0.000000000000000000 ) ) ;
#265 = CIRCLE ( 'NONE', #135, 10.20000000000000107 ) ;
#266 = APPROVAL ( #126, 'NEURÈENÝ' ) ;
#267 = SHAPE_DEFINITION_REPRESENTATION ( #292, #100 ) ;
#268 = DESIGN_CONTEXT ( 'detailed design', #105, 'design' ) ;
#269 = EDGE_LOOP ( 'NONE', ( #218, #7, #291, #129 ) ) ;
#270 = ORIENTED_EDGE ( 'NONE', *, *, #228, .T. ) ;
#271 = APPROVAL_ROLE ( '' ) ;
#272 = VERTEX_POINT ( 'NONE', #216 ) ;
#273 = APPLICATION_CONTEXT ( 'configuration controlled 3d designs of mechanical parts and assemblies' ) ;
#274 = COORDINATED_UNIVERSAL_TIME_OFFSET ( 1, 0, .AHEAD. ) ;
#275 = ORIENTED_EDGE ( 'NONE', *, *, #213, .T. ) ;
#276 = ORIENTED_EDGE ( 'NONE', *, *, #76, .T. ) ;
#277 = CARTESIAN_POINT ( 'NONE',  ( 13.00000000000000178, 1.592040838891559293E-15, 0.000000000000000000 ) ) ;
#278 = CARTESIAN_POINT ( 'NONE',  ( 0.000000000000000000, 0.000000000000000000, 8.000000000000000000 ) ) ;
#279 = CARTESIAN_POINT ( 'NONE',  ( 10.20000000000000107, 0.000000000000000000, 8.199999999999985079 ) ) ;
#280 = PRODUCT_RELATED_PRODUCT_CATEGORY ( 'detail', '', ( #286 ) ) ;
#281 = DIRECTION ( 'NONE',  ( -1.000000000000000000, 0.000000000000000000, 0.000000000000000000 ) ) ;
#282 = DIRECTION ( 'NONE',  ( -0.000000000000000000, -0.000000000000000000, -1.000000000000000000 ) ) ;
#283 = APPLICATION_PROTOCOL_DEFINITION ( 'international standard', 'config_control_design', 1994, #273 ) ;
#284 = CIRCLE ( 'NONE', #2, 10.00000000000000000 ) ;
#285 = CARTESIAN_POINT ( 'NONE',  ( 0.000000000000000000, 0.000000000000000000, 8.199999999999985079 ) ) ;
#286 = PRODUCT ( '3def', '3def', '', ( #194 ) ) ;
#287 = ADVANCED_FACE ( 'NONE', ( #99 ), #27, .F. ) ;
#288 = CALENDAR_DATE ( 2022, 20, 6 ) ;
#289 = AXIS2_PLACEMENT_3D ( 'NONE', #158, #252, #214 ) ;
#290 = AXIS2_PLACEMENT_3D ( 'NONE', #91, #205, #90 ) ;
#291 = ORIENTED_EDGE ( 'NONE', *, *, #221, .F. ) ;
#292 = PRODUCT_DEFINITION_SHAPE ( 'NONE', 'NONE',  #303 ) ;
#293 = DIRECTION ( 'NONE',  ( 1.000000000000000000, 0.000000000000000000, 0.000000000000000000 ) ) ;
#294 = APPROVAL ( #31, 'NEURÈENÝ' ) ;
#295 = EDGE_LOOP ( 'NONE', ( #251, #173, #301, #224 ) ) ;
#296 = ORIENTED_EDGE ( 'NONE', *, *, #180, .T. ) ;
#297 = AXIS2_PLACEMENT_3D ( 'NONE', #147, #168, #188 ) ;
#298 = DATE_TIME_ROLE ( 'classification_date' ) ;
#299 = VERTEX_POINT ( 'NONE', #74 ) ;
#300 = LOCAL_TIME ( 11, 19, 35.00000000000000000, #132 ) ;
#301 = ORIENTED_EDGE ( 'NONE', *, *, #81, .T. ) ;
#302 = ORGANIZATION ( 'NEURÈENÝ', 'NEURÈENÝ', '' ) ;
#303 = PRODUCT_DEFINITION ( 'NEZNÁMÝ', '', #102, #268 ) ;
#304 = DIRECTION ( 'NONE',  ( -0.000000000000000000, -0.000000000000000000, -1.000000000000000000 ) ) ;
#305 = CYLINDRICAL_SURFACE ( 'NONE', #210, 10.00000000000000000 ) ;
#306 = DIRECTION ( 'NONE',  ( -1.000000000000000000, 1.224646799147353207E-16, 0.000000000000000000 ) ) ;
#307 = DIRECTION ( 'NONE',  ( 1.000000000000000000, 0.000000000000000000, -0.000000000000000000 ) ) ;
ENDSEC;
END-ISO-10303-21;
