ISO-10303-21;
HEADER;
FILE_DESCRIPTION (( 'STEP AP203' ),
    '1' );
FILE_NAME ('ee50.STEP',
    '2022-06-20T10:13:41',
    ( '' ),
    ( '' ),
    'SwSTEP 2.0',
    'SolidWorks 2019',
    '' );
FILE_SCHEMA (( 'CONFIG_CONTROL_DESIGN' ));
ENDSEC;

DATA;
#1 = AXIS2_PLACEMENT_3D ( 'NONE', #182, #258, #15 ) ;
#2 = LOCAL_TIME ( 12, 13, 41.00000000000000000, #120 ) ;
#3 = COORDINATED_UNIVERSAL_TIME_OFFSET ( 1, 0, .AHEAD. ) ;
#4 = PRODUCT ( 'ee50', 'ee50', '', ( #54 ) ) ;
#5 = VERTEX_POINT ( 'NONE', #61 ) ;
#6 = CIRCLE ( 'NONE', #94, 1.800000000000000266 ) ;
#7 = ORIENTED_EDGE ( 'NONE', *, *, #181, .F. ) ;
#8 = AXIS2_PLACEMENT_3D ( 'NONE', #76, #26, #73 ) ;
#9 = DIRECTION ( 'NONE',  ( 0.000000000000000000, 0.000000000000000000, 1.000000000000000000 ) ) ;
#10 = ORIENTED_EDGE ( 'NONE', *, *, #282, .T. ) ;
#11 = DATE_AND_TIME ( #169, #53 ) ;
#12 = ADVANCED_FACE ( 'NONE', ( #137 ), #116, .F. ) ;
#13 = DIRECTION ( 'NONE',  ( -1.000000000000000000, 1.224646799147354686E-16, 0.000000000000000000 ) ) ;
#14 = ORIENTED_EDGE ( 'NONE', *, *, #181, .T. ) ;
#15 = DIRECTION ( 'NONE',  ( 1.000000000000000000, 0.000000000000000000, 0.000000000000000000 ) ) ;
#16 = DIRECTION ( 'NONE',  ( -1.000000000000000000, 0.000000000000000000, 0.000000000000000000 ) ) ;
#17 = CIRCLE ( 'NONE', #305, 0.1999999999999998723 ) ;
#18 = DIRECTION ( 'NONE',  ( 1.000000000000000000, 0.000000000000000000, 0.000000000000000000 ) ) ;
#19 = CARTESIAN_POINT ( 'NONE',  ( -1.800000000000000266, 2.204364238465236069E-16, 3.000000000000004441 ) ) ;
#20 = VERTEX_POINT ( 'NONE', #266 ) ;
#21 = APPROVAL ( #304, 'NEURÈENÝ' ) ;
#22 = SECURITY_CLASSIFICATION_LEVEL ( 'unclassified' ) ;
#23 = DIRECTION ( 'NONE',  ( 0.000000000000000000, 0.000000000000000000, 1.000000000000000000 ) ) ;
#24 = CIRCLE ( 'NONE', #82, 1.600000000000000089 ) ;
#25 = ADVANCED_FACE ( 'NONE', ( #220 ), #57, .T. ) ;
#26 = DIRECTION ( 'NONE',  ( 0.000000000000000000, 0.000000000000000000, 1.000000000000000000 ) ) ;
#27 = CC_DESIGN_PERSON_AND_ORGANIZATION_ASSIGNMENT ( #48, #110, ( #223 ) ) ;
#28 = CARTESIAN_POINT ( 'NONE',  ( 1.600000000000000089, 1.959434878635765230E-16, 203.0000000000000000 ) ) ;
#29 = AXIS2_PLACEMENT_3D ( 'NONE', #43, #143, #229 ) ;
#30 = CALENDAR_DATE ( 2022, 20, 6 ) ;
#31 = ORIENTED_EDGE ( 'NONE', *, *, #233, .F. ) ;
#32 = ORIENTED_EDGE ( 'NONE', *, *, #168, .F. ) ;
#33 = CIRCLE ( 'NONE', #138, 3.000000000000000444 ) ;
#34 = EDGE_LOOP ( 'NONE', ( #288, #219 ) ) ;
#35 = MANIFOLD_SOLID_BREP ( 'Zaoblit1', #125 ) ;
#36 = CARTESIAN_POINT ( 'NONE',  ( -1.800000000000000266, 2.204364238465236069E-16, 3.200000000000008171 ) ) ;
#37 = ADVANCED_BREP_SHAPE_REPRESENTATION ( 'ee50', ( #35, #189 ), #152 ) ;
#38 = DIRECTION ( 'NONE',  ( 0.000000000000000000, 0.000000000000000000, 1.000000000000000000 ) ) ;
#39 = ADVANCED_FACE ( 'NONE', ( #267 ), #192, .T. ) ;
#40 = AXIS2_PLACEMENT_3D ( 'NONE', #44, #272, #142 ) ;
#41 = DIRECTION ( 'NONE',  ( -1.000000000000000000, 0.000000000000000000, 0.000000000000000000 ) ) ;
#42 = APPROVAL_DATE_TIME ( #249, #217 ) ;
#43 = CARTESIAN_POINT ( 'NONE',  ( 0.000000000000000000, 0.000000000000000000, 203.0000000000000000 ) ) ;
#44 = CARTESIAN_POINT ( 'NONE',  ( 0.000000000000000000, 0.000000000000000000, 3.200000000000008171 ) ) ;
#45 = VECTOR ( 'NONE', #66, 1000.000000000000000 ) ;
#46 = CARTESIAN_POINT ( 'NONE',  ( 0.000000000000000000, 0.000000000000000000, 3.000000000000000000 ) ) ;
#47 = ORIENTED_EDGE ( 'NONE', *, *, #233, .T. ) ;
#48 = PERSON_AND_ORGANIZATION ( #106, #58 ) ;
#49 = DIRECTION ( 'NONE',  ( -0.000000000000000000, -0.000000000000000000, -1.000000000000000000 ) ) ;
#50 = ORIENTED_EDGE ( 'NONE', *, *, #171, .T. ) ;
#51 = APPROVAL_ROLE ( '' ) ;
#52 = ORIENTED_EDGE ( 'NONE', *, *, #259, .F. ) ;
#53 = LOCAL_TIME ( 12, 13, 41.00000000000000000, #299 ) ;
#54 = MECHANICAL_CONTEXT ( 'NONE', #81, 'mechanical' ) ;
#55 = PERSON_AND_ORGANIZATION ( #106, #58 ) ;
#56 = ORIENTED_EDGE ( 'NONE', *, *, #97, .F. ) ;
#57 = CYLINDRICAL_SURFACE ( 'NONE', #112, 3.000000000000000444 ) ;
#58 = ORGANIZATION ( 'NEURÈENÝ', 'NEURÈENÝ', '' ) ;
#59 = DIRECTION ( 'NONE',  ( 0.000000000000000000, 0.000000000000000000, 1.000000000000000000 ) ) ;
#60 = EDGE_LOOP ( 'NONE', ( #209, #50 ) ) ;
#61 = CARTESIAN_POINT ( 'NONE',  ( 1.600000000000000089, 1.959434878635765230E-16, 203.0000000000000000 ) ) ;
#62 = APPROVAL_PERSON_ORGANIZATION ( #63, #217, #90 ) ;
#63 = PERSON_AND_ORGANIZATION ( #106, #58 ) ;
#64 = CYLINDRICAL_SURFACE ( 'NONE', #213, 1.600000000000000089 ) ;
#65 = DATE_TIME_ROLE ( 'classification_date' ) ;
#66 = DIRECTION ( 'NONE',  ( -0.000000000000000000, -0.000000000000000000, -1.000000000000000000 ) ) ;
#67 = DATE_TIME_ROLE ( 'creation_date' ) ;
#68 = CARTESIAN_POINT ( 'NONE',  ( 0.000000000000000000, 0.000000000000000000, 3.200000000000008171 ) ) ;
#69 = ORIENTED_EDGE ( 'NONE', *, *, #186, .T. ) ;
#70 = CALENDAR_DATE ( 2022, 20, 6 ) ;
#71 = AXIS2_PLACEMENT_3D ( 'NONE', #205, #254, #231 ) ;
#72 = DIRECTION ( 'NONE',  ( 0.000000000000000000, 0.000000000000000000, 1.000000000000000000 ) ) ;
#73 = DIRECTION ( 'NONE',  ( 1.000000000000000000, 0.000000000000000000, 0.000000000000000000 ) ) ;
#74 = DIRECTION ( 'NONE',  ( -0.000000000000000000, -0.000000000000000000, -1.000000000000000000 ) ) ;
#75 =( NAMED_UNIT ( * ) SI_UNIT ( $, .STERADIAN. ) SOLID_ANGLE_UNIT ( ) );
#76 = CARTESIAN_POINT ( 'NONE',  ( 0.000000000000000000, 0.000000000000000000, 3.200000000000008171 ) ) ;
#77 = VECTOR ( 'NONE', #49, 1000.000000000000000 ) ;
#78 = VERTEX_POINT ( 'NONE', #134 ) ;
#79 = CC_DESIGN_SECURITY_CLASSIFICATION ( #286, ( #223 ) ) ;
#80 = PRODUCT_DEFINITION ( 'NEZNÁMÝ', '', #223, #264 ) ;
#81 = APPLICATION_CONTEXT ( 'configuration controlled 3d designs of mechanical parts and assemblies' ) ;
#82 = AXIS2_PLACEMENT_3D ( 'NONE', #212, #23, #163 ) ;
#83 = CARTESIAN_POINT ( 'NONE',  ( 0.000000000000000000, 0.000000000000000000, 0.000000000000000000 ) ) ;
#84 = CARTESIAN_POINT ( 'NONE',  ( 3.000000000000000444, 3.673940397442060361E-16, 3.000000000000000000 ) ) ;
#85 = DATE_AND_TIME ( #30, #148 ) ;
#86 = CIRCLE ( 'NONE', #261, 3.000000000000000444 ) ;
#87 = ORIENTED_EDGE ( 'NONE', *, *, #285, .F. ) ;
#88 = ORIENTED_EDGE ( 'NONE', *, *, #235, .F. ) ;
#89 = EDGE_LOOP ( 'NONE', ( #109, #32, #301, #155 ) ) ;
#90 = APPROVAL_ROLE ( '' ) ;
#91 = CC_DESIGN_APPROVAL ( #21, ( #80 ) ) ;
#92 = CARTESIAN_POINT ( 'NONE',  ( -3.000000000000000444, 0.000000000000000000, 0.000000000000000000 ) ) ;
#93 = ORIENTED_EDGE ( 'NONE', *, *, #186, .F. ) ;
#94 = AXIS2_PLACEMENT_3D ( 'NONE', #170, #74, #187 ) ;
#95 = DIRECTION ( 'NONE',  ( -0.000000000000000000, -0.000000000000000000, -1.000000000000000000 ) ) ;
#96 = DIRECTION ( 'NONE',  ( 0.000000000000000000, 0.000000000000000000, -1.000000000000000000 ) ) ;
#97 = EDGE_CURVE ( 'NONE', #178, #195, #17, .T. ) ;
#98 = DIRECTION ( 'NONE',  ( 1.000000000000000000, 0.000000000000000000, 0.000000000000000000 ) ) ;
#99 = DATE_AND_TIME ( #70, #149 ) ;
#100 = CARTESIAN_POINT ( 'NONE',  ( 0.000000000000000000, 0.000000000000000000, 3.000000000000000000 ) ) ;
#101 =( LENGTH_UNIT ( ) NAMED_UNIT ( * ) SI_UNIT ( .MILLI., .METRE. ) );
#102 = APPROVAL_STATUS ( 'not_yet_approved' ) ;
#103 = CARTESIAN_POINT ( 'NONE',  ( 0.000000000000000000, 0.000000000000000000, 3.000000000000000000 ) ) ;
#104 = VERTEX_POINT ( 'NONE', #92 ) ;
#105 = AXIS2_PLACEMENT_3D ( 'NONE', #183, #307, #96 ) ;
#106 = PERSON ( 'NEURÈENÝ', 'NEURÈENÝ', 'NEURÈENÝ', ('NEURÈENÝ'), ('NEURÈENÝ'), ('NEURÈENÝ') ) ;
#107 = AXIS2_PLACEMENT_3D ( 'NONE', #46, #185, #98 ) ;
#108 = ORIENTED_EDGE ( 'NONE', *, *, #215, .F. ) ;
#109 = ORIENTED_EDGE ( 'NONE', *, *, #296, .F. ) ;
#110 = PERSON_AND_ORGANIZATION_ROLE ( 'creator' ) ;
#111 = DIRECTION ( 'NONE',  ( 1.000000000000000000, 0.000000000000000000, 0.000000000000000000 ) ) ;
#112 = AXIS2_PLACEMENT_3D ( 'NONE', #243, #291, #41 ) ;
#113 = ORIENTED_EDGE ( 'NONE', *, *, #168, .T. ) ;
#114 = CC_DESIGN_APPROVAL ( #217, ( #286 ) ) ;
#115 = ADVANCED_FACE ( 'NONE', ( #269, #179 ), #268, .T. ) ;
#116 = PLANE ( 'NONE',  #210 ) ;
#117 = CARTESIAN_POINT ( 'NONE',  ( -1.600000000000000089, 0.000000000000000000, 203.0000000000000000 ) ) ;
#118 = APPROVAL_ROLE ( '' ) ;
#119 = FACE_OUTER_BOUND ( 'NONE', #222, .T. ) ;
#120 = COORDINATED_UNIVERSAL_TIME_OFFSET ( 1, 0, .AHEAD. ) ;
#121 = DIRECTION ( 'NONE',  ( 0.000000000000000000, 0.000000000000000000, 1.000000000000000000 ) ) ;
#122 = DIRECTION ( 'NONE',  ( -0.000000000000000000, -0.000000000000000000, -1.000000000000000000 ) ) ;
#123 = CALENDAR_DATE ( 2022, 20, 6 ) ;
#124 = DIRECTION ( 'NONE',  ( 0.000000000000000000, 0.000000000000000000, 1.000000000000000000 ) ) ;
#125 = CLOSED_SHELL ( 'NONE', ( #239, #263, #131, #25, #115, #12, #252, #39, #206 ) ) ;
#126 = CC_DESIGN_APPROVAL ( #242, ( #223 ) ) ;
#127 = CARTESIAN_POINT ( 'NONE',  ( 0.000000000000000000, 0.000000000000000000, 0.000000000000000000 ) ) ;
#128 = DIRECTION ( 'NONE',  ( 0.000000000000000000, 0.000000000000000000, 1.000000000000000000 ) ) ;
#129 = VECTOR ( 'NONE', #200, 1000.000000000000000 ) ;
#130 = ORIENTED_EDGE ( 'NONE', *, *, #154, .F. ) ;
#131 = ADVANCED_FACE ( 'NONE', ( #248 ), #139, .T. ) ;
#132 = PRODUCT_RELATED_PRODUCT_CATEGORY ( 'detail', '', ( #4 ) ) ;
#133 = VERTEX_POINT ( 'NONE', #141 ) ;
#134 = CARTESIAN_POINT ( 'NONE',  ( -1.600000000000000089, 0.000000000000000000, 203.0000000000000000 ) ) ;
#135 = DIRECTION ( 'NONE',  ( 1.224646799147353207E-16, 1.000000000000000000, -0.000000000000000000 ) ) ;
#136 = CC_DESIGN_PERSON_AND_ORGANIZATION_ASSIGNMENT ( #204, #298, ( #4 ) ) ;
#137 = FACE_OUTER_BOUND ( 'NONE', #216, .T. ) ;
#138 = AXIS2_PLACEMENT_3D ( 'NONE', #127, #128, #190 ) ;
#139 = CYLINDRICAL_SURFACE ( 'NONE', #247, 3.000000000000000444 ) ;
#140 = SHAPE_DEFINITION_REPRESENTATION ( #293, #37 ) ;
#141 = CARTESIAN_POINT ( 'NONE',  ( -3.000000000000000444, 0.000000000000000000, 3.000000000000000000 ) ) ;
#142 = DIRECTION ( 'NONE',  ( 1.000000000000000000, 0.000000000000000000, 0.000000000000000000 ) ) ;
#143 = DIRECTION ( 'NONE',  ( -0.000000000000000000, -0.000000000000000000, -1.000000000000000000 ) ) ;
#144 = DIRECTION ( 'NONE',  ( 0.000000000000000000, 0.000000000000000000, 1.000000000000000000 ) ) ;
#145 = CARTESIAN_POINT ( 'NONE',  ( 1.800000000000000266, 0.000000000000000000, 3.000000000000004441 ) ) ;
#146 = CIRCLE ( 'NONE', #71, 1.600000000000000089 ) ;
#147 = EDGE_CURVE ( 'NONE', #289, #195, #191, .T. ) ;
#148 = LOCAL_TIME ( 12, 13, 41.00000000000000000, #3 ) ;
#149 = LOCAL_TIME ( 12, 13, 41.00000000000000000, #302 ) ;
#150 = EDGE_LOOP ( 'NONE', ( #108, #262, #14, #31 ) ) ;
#151 = ORIENTED_EDGE ( 'NONE', *, *, #147, .F. ) ;
#152 =( GEOMETRIC_REPRESENTATION_CONTEXT ( 3 ) GLOBAL_UNCERTAINTY_ASSIGNED_CONTEXT ( ( #283 ) ) GLOBAL_UNIT_ASSIGNED_CONTEXT ( ( #101, #236, #75 ) ) REPRESENTATION_CONTEXT ( 'NONE', 'WORKASPACE' ) );
#153 = ORIENTED_EDGE ( 'NONE', *, *, #228, .F. ) ;
#154 = EDGE_CURVE ( 'NONE', #178, #20, #24, .T. ) ;
#155 = ORIENTED_EDGE ( 'NONE', *, *, #154, .T. ) ;
#156 = CC_DESIGN_DATE_AND_TIME_ASSIGNMENT ( #306, #65, ( #286 ) ) ;
#157 = DIRECTION ( 'NONE',  ( 1.000000000000000000, 0.000000000000000000, -0.000000000000000000 ) ) ;
#158 = LOCAL_TIME ( 12, 13, 41.00000000000000000, #161 ) ;
#159 = CALENDAR_DATE ( 2022, 20, 6 ) ;
#160 = CYLINDRICAL_SURFACE ( 'NONE', #29, 1.600000000000000089 ) ;
#161 = COORDINATED_UNIVERSAL_TIME_OFFSET ( 1, 0, .AHEAD. ) ;
#162 = APPLICATION_CONTEXT ( 'configuration controlled 3d designs of mechanical parts and assemblies' ) ;
#163 = DIRECTION ( 'NONE',  ( 1.000000000000000000, 0.000000000000000000, 0.000000000000000000 ) ) ;
#164 = AXIS2_PLACEMENT_3D ( 'NONE', #180, #59, #245 ) ;
#165 = LINE ( 'NONE', #117, #174 ) ;
#166 = TOROIDAL_SURFACE ( 'NONE', #40, 1.800000000000000266, 0.2000000000000000111 ) ;
#167 = DIRECTION ( 'NONE',  ( 1.000000000000000000, 0.000000000000000000, 0.000000000000000000 ) ) ;
#168 = EDGE_CURVE ( 'NONE', #78, #5, #201, .T. ) ;
#169 = CALENDAR_DATE ( 2022, 20, 6 ) ;
#170 = CARTESIAN_POINT ( 'NONE',  ( 0.000000000000000000, 0.000000000000000000, 3.000000000000000000 ) ) ;
#171 = EDGE_CURVE ( 'NONE', #195, #289, #6, .T. ) ;
#172 = EDGE_LOOP ( 'NONE', ( #56, #87, #69, #177 ) ) ;
#173 = AXIS2_PLACEMENT_3D ( 'NONE', #246, #38, #157 ) ;
#174 = VECTOR ( 'NONE', #95, 1000.000000000000000 ) ;
#175 = APPROVAL_DATE_TIME ( #85, #21 ) ;
#176 = ORIENTED_EDGE ( 'NONE', *, *, #285, .T. ) ;
#177 = ORIENTED_EDGE ( 'NONE', *, *, #171, .F. ) ;
#178 = VERTEX_POINT ( 'NONE', #297 ) ;
#179 = FACE_OUTER_BOUND ( 'NONE', #34, .T. ) ;
#180 = CARTESIAN_POINT ( 'NONE',  ( 0.000000000000000000, 0.000000000000000000, 203.0000000000000000 ) ) ;
#181 = EDGE_CURVE ( 'NONE', #199, #104, #295, .T. ) ;
#182 = CARTESIAN_POINT ( 'NONE',  ( 0.000000000000000000, 0.000000000000000000, 3.000000000000000000 ) ) ;
#183 = CARTESIAN_POINT ( 'NONE',  ( 1.800000000000000266, 0.000000000000000000, 3.200000000000008171 ) ) ;
#184 = PERSON_AND_ORGANIZATION_ROLE ( 'design_supplier' ) ;
#185 = DIRECTION ( 'NONE',  ( -0.000000000000000000, -0.000000000000000000, -1.000000000000000000 ) ) ;
#186 = EDGE_CURVE ( 'NONE', #20, #289, #198, .T. ) ;
#187 = DIRECTION ( 'NONE',  ( 1.000000000000000000, 0.000000000000000000, 0.000000000000000000 ) ) ;
#188 = CC_DESIGN_PERSON_AND_ORGANIZATION_ASSIGNMENT ( #55, #279, ( #80 ) ) ;
#189 = AXIS2_PLACEMENT_3D ( 'NONE', #83, #244, #111 ) ;
#190 = DIRECTION ( 'NONE',  ( 1.000000000000000000, 0.000000000000000000, 0.000000000000000000 ) ) ;
#191 = CIRCLE ( 'NONE', #107, 1.800000000000000266 ) ;
#192 = PLANE ( 'NONE',  #164 ) ;
#193 = ORIENTED_EDGE ( 'NONE', *, *, #282, .F. ) ;
#194 = EDGE_CURVE ( 'NONE', #133, #265, #86, .T. ) ;
#195 = VERTEX_POINT ( 'NONE', #19 ) ;
#196 = PERSON_AND_ORGANIZATION ( #106, #58 ) ;
#197 = EDGE_LOOP ( 'NONE', ( #88, #240, #47, #10 ) ) ;
#198 = CIRCLE ( 'NONE', #105, 0.2000000000000000944 ) ;
#199 = VERTEX_POINT ( 'NONE', #280 ) ;
#200 = DIRECTION ( 'NONE',  ( -0.000000000000000000, -0.000000000000000000, -1.000000000000000000 ) ) ;
#201 = CIRCLE ( 'NONE', #284, 1.600000000000000089 ) ;
#202 = PERSON_AND_ORGANIZATION ( #106, #58 ) ;
#203 = CARTESIAN_POINT ( 'NONE',  ( 0.000000000000000000, 0.000000000000000000, 203.0000000000000000 ) ) ;
#204 = PERSON_AND_ORGANIZATION ( #106, #58 ) ;
#205 = CARTESIAN_POINT ( 'NONE',  ( 0.000000000000000000, 0.000000000000000000, 203.0000000000000000 ) ) ;
#206 = ADVANCED_FACE ( 'NONE', ( #275 ), #241, .F. ) ;
#207 = LINE ( 'NONE', #225, #129 ) ;
#208 = PERSON_AND_ORGANIZATION ( #106, #58 ) ;
#209 = ORIENTED_EDGE ( 'NONE', *, *, #147, .T. ) ;
#210 = AXIS2_PLACEMENT_3D ( 'NONE', #221, #9, #292 ) ;
#211 = CC_DESIGN_DATE_AND_TIME_ASSIGNMENT ( #11, #67, ( #80 ) ) ;
#212 = CARTESIAN_POINT ( 'NONE',  ( 0.000000000000000000, 0.000000000000000000, 3.200000000000008171 ) ) ;
#213 = AXIS2_PLACEMENT_3D ( 'NONE', #257, #122, #303 ) ;
#214 = CIRCLE ( 'NONE', #8, 1.600000000000000089 ) ;
#215 = EDGE_CURVE ( 'NONE', #265, #133, #271, .T. ) ;
#216 = EDGE_LOOP ( 'NONE', ( #193, #7 ) ) ;
#217 = APPROVAL ( #102, 'NEURÈENÝ' ) ;
#218 = ORIENTED_EDGE ( 'NONE', *, *, #296, .T. ) ;
#219 = ORIENTED_EDGE ( 'NONE', *, *, #215, .T. ) ;
#220 = FACE_OUTER_BOUND ( 'NONE', #197, .T. ) ;
#221 = CARTESIAN_POINT ( 'NONE',  ( 0.000000000000000000, 0.000000000000000000, 0.000000000000000000 ) ) ;
#222 = EDGE_LOOP ( 'NONE', ( #130, #238, #151, #93 ) ) ;
#223 = PRODUCT_DEFINITION_FORMATION_WITH_SPECIFIED_SOURCE ( 'LIBOVOLNÝ', '', #4, .NOT_KNOWN. ) ;
#224 = CARTESIAN_POINT ( 'NONE',  ( 0.000000000000000000, 0.000000000000000000, 0.000000000000000000 ) ) ;
#225 = CARTESIAN_POINT ( 'NONE',  ( -3.000000000000000444, 0.000000000000000000, 3.000000000000000000 ) ) ;
#226 = FACE_OUTER_BOUND ( 'NONE', #89, .T. ) ;
#227 = APPROVAL_PERSON_ORGANIZATION ( #208, #21, #51 ) ;
#228 = EDGE_CURVE ( 'NONE', #78, #178, #165, .T. ) ;
#229 = DIRECTION ( 'NONE',  ( -1.000000000000000000, 0.000000000000000000, 0.000000000000000000 ) ) ;
#230 = APPLICATION_PROTOCOL_DEFINITION ( 'international standard', 'config_control_design', 1994, #162 ) ;
#231 = DIRECTION ( 'NONE',  ( 1.000000000000000000, 0.000000000000000000, 0.000000000000000000 ) ) ;
#232 = LINE ( 'NONE', #28, #77 ) ;
#233 = EDGE_CURVE ( 'NONE', #133, #104, #207, .T. ) ;
#234 = AXIS2_PLACEMENT_3D ( 'NONE', #68, #144, #18 ) ;
#235 = EDGE_CURVE ( 'NONE', #265, #199, #294, .T. ) ;
#236 =( NAMED_UNIT ( * ) PLANE_ANGLE_UNIT ( ) SI_UNIT ( $, .RADIAN. ) );
#237 = ORIENTED_EDGE ( 'NONE', *, *, #259, .T. ) ;
#238 = ORIENTED_EDGE ( 'NONE', *, *, #97, .T. ) ;
#239 = ADVANCED_FACE ( 'NONE', ( #119 ), #166, .F. ) ;
#240 = ORIENTED_EDGE ( 'NONE', *, *, #194, .F. ) ;
#241 = TOROIDAL_SURFACE ( 'NONE', #234, 1.800000000000000266, 0.2000000000000000111 ) ;
#242 = APPROVAL ( #253, 'NEURÈENÝ' ) ;
#243 = CARTESIAN_POINT ( 'NONE',  ( 0.000000000000000000, 0.000000000000000000, 3.000000000000000000 ) ) ;
#244 = DIRECTION ( 'NONE',  ( 0.000000000000000000, 0.000000000000000000, 1.000000000000000000 ) ) ;
#245 = DIRECTION ( 'NONE',  ( 1.000000000000000000, 0.000000000000000000, -0.000000000000000000 ) ) ;
#246 = CARTESIAN_POINT ( 'NONE',  ( 0.000000000000000000, 0.000000000000000000, 3.000000000000000000 ) ) ;
#247 = AXIS2_PLACEMENT_3D ( 'NONE', #100, #277, #16 ) ;
#248 = FACE_OUTER_BOUND ( 'NONE', #150, .T. ) ;
#249 = DATE_AND_TIME ( #159, #158 ) ;
#250 = DIRECTION ( 'NONE',  ( 1.000000000000000000, 0.000000000000000000, 0.000000000000000000 ) ) ;
#251 = DIRECTION ( 'NONE',  ( 1.000000000000000000, 0.000000000000000000, 0.000000000000000000 ) ) ;
#252 = ADVANCED_FACE ( 'NONE', ( #226 ), #64, .T. ) ;
#253 = APPROVAL_STATUS ( 'not_yet_approved' ) ;
#254 = DIRECTION ( 'NONE',  ( 0.000000000000000000, 0.000000000000000000, 1.000000000000000000 ) ) ;
#255 = APPROVAL_PERSON_ORGANIZATION ( #276, #242, #118 ) ;
#256 = APPROVAL_DATE_TIME ( #99, #242 ) ;
#257 = CARTESIAN_POINT ( 'NONE',  ( 0.000000000000000000, 0.000000000000000000, 203.0000000000000000 ) ) ;
#258 = DIRECTION ( 'NONE',  ( 0.000000000000000000, 0.000000000000000000, 1.000000000000000000 ) ) ;
#259 = EDGE_CURVE ( 'NONE', #5, #78, #146, .T. ) ;
#260 = EDGE_LOOP ( 'NONE', ( #52, #218, #176, #153 ) ) ;
#261 = AXIS2_PLACEMENT_3D ( 'NONE', #103, #124, #251 ) ;
#262 = ORIENTED_EDGE ( 'NONE', *, *, #235, .T. ) ;
#263 = ADVANCED_FACE ( 'NONE', ( #300 ), #160, .T. ) ;
#264 = DESIGN_CONTEXT ( 'detailed design', #162, 'design' ) ;
#265 = VERTEX_POINT ( 'NONE', #84 ) ;
#266 = CARTESIAN_POINT ( 'NONE',  ( 1.600000000000000089, 1.959434878635765230E-16, 3.200000000000008171 ) ) ;
#267 = FACE_OUTER_BOUND ( 'NONE', #287, .T. ) ;
#268 = PLANE ( 'NONE',  #173 ) ;
#269 = FACE_BOUND ( 'NONE', #60, .T. ) ;
#270 = CC_DESIGN_PERSON_AND_ORGANIZATION_ASSIGNMENT ( #196, #290, ( #286 ) ) ;
#271 = CIRCLE ( 'NONE', #1, 3.000000000000000444 ) ;
#272 = DIRECTION ( 'NONE',  ( 0.000000000000000000, 0.000000000000000000, 1.000000000000000000 ) ) ;
#273 = CARTESIAN_POINT ( 'NONE',  ( 3.000000000000000444, 3.673940397442060361E-16, 3.000000000000000000 ) ) ;
#274 = CC_DESIGN_PERSON_AND_ORGANIZATION_ASSIGNMENT ( #202, #184, ( #223 ) ) ;
#275 = FACE_OUTER_BOUND ( 'NONE', #172, .T. ) ;
#276 = PERSON_AND_ORGANIZATION ( #106, #58 ) ;
#277 = DIRECTION ( 'NONE',  ( -0.000000000000000000, -0.000000000000000000, -1.000000000000000000 ) ) ;
#278 = APPLICATION_PROTOCOL_DEFINITION ( 'international standard', 'config_control_design', 1994, #81 ) ;
#279 = PERSON_AND_ORGANIZATION_ROLE ( 'creator' ) ;
#280 = CARTESIAN_POINT ( 'NONE',  ( 3.000000000000000444, 3.673940397442060361E-16, 0.000000000000000000 ) ) ;
#281 = AXIS2_PLACEMENT_3D ( 'NONE', #224, #72, #167 ) ;
#282 = EDGE_CURVE ( 'NONE', #104, #199, #33, .T. ) ;
#283 = UNCERTAINTY_MEASURE_WITH_UNIT (LENGTH_MEASURE( 1.000000000000000082E-05 ), #101, 'distance_accuracy_value', 'NONE');
#284 = AXIS2_PLACEMENT_3D ( 'NONE', #203, #121, #250 ) ;
#285 = EDGE_CURVE ( 'NONE', #20, #178, #214, .T. ) ;
#286 = SECURITY_CLASSIFICATION ( '', '', #22 ) ;
#287 = EDGE_LOOP ( 'NONE', ( #113, #237 ) ) ;
#288 = ORIENTED_EDGE ( 'NONE', *, *, #194, .T. ) ;
#289 = VERTEX_POINT ( 'NONE', #145 ) ;
#290 = PERSON_AND_ORGANIZATION_ROLE ( 'classification_officer' ) ;
#291 = DIRECTION ( 'NONE',  ( -0.000000000000000000, -0.000000000000000000, -1.000000000000000000 ) ) ;
#292 = DIRECTION ( 'NONE',  ( 1.000000000000000000, 0.000000000000000000, -0.000000000000000000 ) ) ;
#293 = PRODUCT_DEFINITION_SHAPE ( 'NONE', 'NONE',  #80 ) ;
#294 = LINE ( 'NONE', #273, #45 ) ;
#295 = CIRCLE ( 'NONE', #281, 3.000000000000000444 ) ;
#296 = EDGE_CURVE ( 'NONE', #5, #20, #232, .T. ) ;
#297 = CARTESIAN_POINT ( 'NONE',  ( -1.600000000000000089, 0.000000000000000000, 3.200000000000008171 ) ) ;
#298 = PERSON_AND_ORGANIZATION_ROLE ( 'design_owner' ) ;
#299 = COORDINATED_UNIVERSAL_TIME_OFFSET ( 1, 0, .AHEAD. ) ;
#300 = FACE_OUTER_BOUND ( 'NONE', #260, .T. ) ;
#301 = ORIENTED_EDGE ( 'NONE', *, *, #228, .T. ) ;
#302 = COORDINATED_UNIVERSAL_TIME_OFFSET ( 1, 0, .AHEAD. ) ;
#303 = DIRECTION ( 'NONE',  ( -1.000000000000000000, 0.000000000000000000, 0.000000000000000000 ) ) ;
#304 = APPROVAL_STATUS ( 'not_yet_approved' ) ;
#305 = AXIS2_PLACEMENT_3D ( 'NONE', #36, #135, #13 ) ;
#306 = DATE_AND_TIME ( #123, #2 ) ;
#307 = DIRECTION ( 'NONE',  ( 0.000000000000000000, -1.000000000000000000, 0.000000000000000000 ) ) ;
ENDSEC;
END-ISO-10303-21;
