ISO-10303-21;
HEADER;
FILE_DESCRIPTION (( 'STEP AP203' ),
    '1' );
FILE_NAME ('ed73.STEP',
    '2022-06-20T09:38:16',
    ( '' ),
    ( '' ),
    'SwSTEP 2.0',
    'SolidWorks 2019',
    '' );
FILE_SCHEMA (( 'CONFIG_CONTROL_DESIGN' ));
ENDSEC;

DATA;
#1 = CC_DESIGN_PERSON_AND_ORGANIZATION_ASSIGNMENT ( #25, #228, ( #128 ) ) ;
#2 = DIRECTION ( 'NONE',  ( -1.000000000000000000, 0.000000000000000000, 0.000000000000000000 ) ) ;
#3 = AXIS2_PLACEMENT_3D ( 'NONE', #175, #131, #2 ) ;
#4 = EDGE_LOOP ( 'NONE', ( #75, #73, #161, #255 ) ) ;
#5 = CYLINDRICAL_SURFACE ( 'NONE', #205, 5.100000000000001421 ) ;
#6 = EDGE_CURVE ( 'NONE', #280, #43, #140, .T. ) ;
#7 = VERTEX_POINT ( 'NONE', #135 ) ;
#8 = ORIENTED_EDGE ( 'NONE', *, *, #224, .T. ) ;
#9 = TOROIDAL_SURFACE ( 'NONE', #303, 5.300000000000000711, 0.2000000000000000111 ) ;
#10 = LOCAL_TIME ( 11, 38, 16.00000000000000000, #185 ) ;
#11 = CARTESIAN_POINT ( 'NONE',  ( 0.000000000000000000, 0.000000000000000000, 5.199999999999982414 ) ) ;
#12 = ADVANCED_FACE ( 'NONE', ( #195 ), #301, .F. ) ;
#13 = AXIS2_PLACEMENT_3D ( 'NONE', #241, #55, #285 ) ;
#14 = DIRECTION ( 'NONE',  ( -0.000000000000000000, -0.000000000000000000, -1.000000000000000000 ) ) ;
#15 = EDGE_LOOP ( 'NONE', ( #92, #130 ) ) ;
#16 = AXIS2_PLACEMENT_3D ( 'NONE', #263, #113, #225 ) ;
#17 = DIRECTION ( 'NONE',  ( 0.000000000000000000, 0.000000000000000000, 1.000000000000000000 ) ) ;
#18 = EDGE_CURVE ( 'NONE', #216, #43, #88, .T. ) ;
#19 = DIRECTION ( 'NONE',  ( 1.000000000000000000, 0.000000000000000000, 0.000000000000000000 ) ) ;
#20 = PRODUCT ( 'ed73', 'ed73', '', ( #302 ) ) ;
#21 = PERSON_AND_ORGANIZATION ( #149, #226 ) ;
#22 = LOCAL_TIME ( 11, 38, 16.00000000000000000, #184 ) ;
#23 = DATE_AND_TIME ( #278, #168 ) ;
#24 = EDGE_CURVE ( 'NONE', #200, #36, #284, .T. ) ;
#25 = PERSON_AND_ORGANIZATION ( #149, #226 ) ;
#26 = PERSON_AND_ORGANIZATION_ROLE ( 'design_owner' ) ;
#27 = APPROVAL_STATUS ( 'not_yet_approved' ) ;
#28 = ORIENTED_EDGE ( 'NONE', *, *, #49, .T. ) ;
#29 = CC_DESIGN_APPROVAL ( #265, ( #51 ) ) ;
#30 = CARTESIAN_POINT ( 'NONE',  ( 0.000000000000000000, 0.000000000000000000, 805.0000000000000000 ) ) ;
#31 = ORIENTED_EDGE ( 'NONE', *, *, #18, .F. ) ;
#32 = AXIS2_PLACEMENT_3D ( 'NONE', #35, #108, #170 ) ;
#33 = DIRECTION ( 'NONE',  ( 1.000000000000000000, 0.000000000000000000, 0.000000000000000000 ) ) ;
#34 = EDGE_CURVE ( 'NONE', #293, #200, #78, .T. ) ;
#35 = CARTESIAN_POINT ( 'NONE',  ( -5.300000000000000711, 6.490628035480972910E-16, 5.199999999999982414 ) ) ;
#36 = VERTEX_POINT ( 'NONE', #236 ) ;
#37 = DIRECTION ( 'NONE',  ( 0.000000000000000000, 0.000000000000000000, 1.000000000000000000 ) ) ;
#38 = FACE_OUTER_BOUND ( 'NONE', #151, .T. ) ;
#39 = FACE_OUTER_BOUND ( 'NONE', #67, .T. ) ;
#40 = CYLINDRICAL_SURFACE ( 'NONE', #239, 8.000000000000000000 ) ;
#41 = CARTESIAN_POINT ( 'NONE',  ( 0.000000000000000000, 0.000000000000000000, 5.199999999999982414 ) ) ;
#42 = CALENDAR_DATE ( 2022, 20, 6 ) ;
#43 = VERTEX_POINT ( 'NONE', #215 ) ;
#44 = COORDINATED_UNIVERSAL_TIME_OFFSET ( 1, 0, .AHEAD. ) ;
#45 = EDGE_CURVE ( 'NONE', #7, #188, #218, .T. ) ;
#46 = ORIENTED_EDGE ( 'NONE', *, *, #86, .F. ) ;
#47 = PERSON_AND_ORGANIZATION ( #149, #226 ) ;
#48 = DATE_TIME_ROLE ( 'creation_date' ) ;
#49 = EDGE_CURVE ( 'NONE', #7, #252, #234, .T. ) ;
#50 = ORIENTED_EDGE ( 'NONE', *, *, #224, .F. ) ;
#51 = SECURITY_CLASSIFICATION ( '', '', #66 ) ;
#52 = CYLINDRICAL_SURFACE ( 'NONE', #3, 8.000000000000000000 ) ;
#53 = CC_DESIGN_PERSON_AND_ORGANIZATION_ASSIGNMENT ( #21, #251, ( #128 ) ) ;
#54 = EDGE_LOOP ( 'NONE', ( #102, #103, #31, #122 ) ) ;
#55 = DIRECTION ( 'NONE',  ( 0.000000000000000000, 0.000000000000000000, 1.000000000000000000 ) ) ;
#56 = AXIS2_PLACEMENT_3D ( 'NONE', #295, #95, #183 ) ;
#57 = ORIENTED_EDGE ( 'NONE', *, *, #276, .T. ) ;
#58 = ADVANCED_FACE ( 'NONE', ( #217 ), #5, .T. ) ;
#59 = CARTESIAN_POINT ( 'NONE',  ( 0.000000000000000000, 0.000000000000000000, 5.000000000000000000 ) ) ;
#60 = AXIS2_PLACEMENT_3D ( 'NONE', #116, #158, #111 ) ;
#61 = DIRECTION ( 'NONE',  ( 1.000000000000000000, 0.000000000000000000, 0.000000000000000000 ) ) ;
#62 = DIRECTION ( 'NONE',  ( 1.000000000000000000, 0.000000000000000000, 0.000000000000000000 ) ) ;
#63 = ADVANCED_FACE ( 'NONE', ( #109 ), #52, .T. ) ;
#64 = DIRECTION ( 'NONE',  ( 0.000000000000000000, 0.000000000000000000, -1.000000000000000000 ) ) ;
#65 = CC_DESIGN_SECURITY_CLASSIFICATION ( #51, ( #128 ) ) ;
#66 = SECURITY_CLASSIFICATION_LEVEL ( 'unclassified' ) ;
#67 = EDGE_LOOP ( 'NONE', ( #197, #307, #257, #50 ) ) ;
#68 = APPLICATION_CONTEXT ( 'configuration controlled 3d designs of mechanical parts and assemblies' ) ;
#69 = CALENDAR_DATE ( 2022, 20, 6 ) ;
#70 = ORIENTED_EDGE ( 'NONE', *, *, #34, .T. ) ;
#71 = VECTOR ( 'NONE', #243, 1000.000000000000000 ) ;
#72 = PERSON_AND_ORGANIZATION_ROLE ( 'creator' ) ;
#73 = ORIENTED_EDGE ( 'NONE', *, *, #167, .F. ) ;
#74 = CARTESIAN_POINT ( 'NONE',  ( 0.000000000000000000, 0.000000000000000000, 0.000000000000000000 ) ) ;
#75 = ORIENTED_EDGE ( 'NONE', *, *, #6, .F. ) ;
#76 = CIRCLE ( 'NONE', #60, 5.100000000000001421 ) ;
#77 = CIRCLE ( 'NONE', #56, 5.300000000000000711 ) ;
#78 = LINE ( 'NONE', #174, #126 ) ;
#79 = EDGE_CURVE ( 'NONE', #304, #293, #267, .T. ) ;
#80 = CARTESIAN_POINT ( 'NONE',  ( -8.000000000000000000, 0.000000000000000000, 5.000000000000000000 ) ) ;
#81 = ORIENTED_EDGE ( 'NONE', *, *, #45, .F. ) ;
#82 = AXIS2_PLACEMENT_3D ( 'NONE', #238, #107, #266 ) ;
#83 = DIRECTION ( 'NONE',  ( -0.000000000000000000, -0.000000000000000000, -1.000000000000000000 ) ) ;
#84 = APPROVAL_PERSON_ORGANIZATION ( #97, #177, #163 ) ;
#85 = DIRECTION ( 'NONE',  ( -0.000000000000000000, -0.000000000000000000, -1.000000000000000000 ) ) ;
#86 = EDGE_CURVE ( 'NONE', #304, #36, #282, .T. ) ;
#87 = DIRECTION ( 'NONE',  ( -1.000000000000000000, 0.000000000000000000, 0.000000000000000000 ) ) ;
#88 = CIRCLE ( 'NONE', #212, 5.300000000000000711 ) ;
#89 = CARTESIAN_POINT ( 'NONE',  ( 0.000000000000000000, 0.000000000000000000, 0.000000000000000000 ) ) ;
#90 = ADVANCED_FACE ( 'NONE', ( #193 ), #283, .T. ) ;
#91 = DIRECTION ( 'NONE',  ( 0.000000000000000000, 0.000000000000000000, 1.000000000000000000 ) ) ;
#92 = ORIENTED_EDGE ( 'NONE', *, *, #18, .T. ) ;
#93 = CARTESIAN_POINT ( 'NONE',  ( 5.100000000000001421, 6.245698675651502811E-16, 5.199999999999982414 ) ) ;
#94 = CLOSED_SHELL ( 'NONE', ( #106, #100, #63, #220, #112, #119, #58, #90, #12 ) ) ;
#95 = DIRECTION ( 'NONE',  ( -0.000000000000000000, -0.000000000000000000, -1.000000000000000000 ) ) ;
#96 = CIRCLE ( 'NONE', #110, 8.000000000000000000 ) ;
#97 = PERSON_AND_ORGANIZATION ( #149, #226 ) ;
#98 = PRODUCT_DEFINITION ( 'NEZNÁMÝ', '', #128, #250 ) ;
#99 = APPROVAL_DATE_TIME ( #118, #265 ) ;
#100 = ADVANCED_FACE ( 'NONE', ( #39 ), #159, .T. ) ;
#101 = CC_DESIGN_APPROVAL ( #171, ( #98 ) ) ;
#102 = ORIENTED_EDGE ( 'NONE', *, *, #276, .F. ) ;
#103 = ORIENTED_EDGE ( 'NONE', *, *, #6, .T. ) ;
#104 = DIRECTION ( 'NONE',  ( -1.000000000000000000, 0.000000000000000000, 0.000000000000000000 ) ) ;
#105 = DIRECTION ( 'NONE',  ( -0.000000000000000000, -0.000000000000000000, -1.000000000000000000 ) ) ;
#106 = ADVANCED_FACE ( 'NONE', ( #156 ), #9, .F. ) ;
#107 = DIRECTION ( 'NONE',  ( 0.000000000000000000, 0.000000000000000000, 1.000000000000000000 ) ) ;
#108 = DIRECTION ( 'NONE',  ( 1.224646799147353207E-16, 1.000000000000000000, -0.000000000000000000 ) ) ;
#109 = FACE_OUTER_BOUND ( 'NONE', #210, .T. ) ;
#110 = AXIS2_PLACEMENT_3D ( 'NONE', #141, #202, #61 ) ;
#111 = DIRECTION ( 'NONE',  ( 1.000000000000000000, 0.000000000000000000, 0.000000000000000000 ) ) ;
#112 = ADVANCED_FACE ( 'NONE', ( #268, #288 ), #199, .T. ) ;
#113 = DIRECTION ( 'NONE',  ( 0.000000000000000000, 0.000000000000000000, 1.000000000000000000 ) ) ;
#114 = CIRCLE ( 'NONE', #153, 8.000000000000000000 ) ;
#115 = ORIENTED_EDGE ( 'NONE', *, *, #233, .F. ) ;
#116 = CARTESIAN_POINT ( 'NONE',  ( 0.000000000000000000, 0.000000000000000000, 5.199999999999982414 ) ) ;
#117 = CARTESIAN_POINT ( 'NONE',  ( -5.100000000000001421, 0.000000000000000000, 5.199999999999982414 ) ) ;
#118 = DATE_AND_TIME ( #42, #305 ) ;
#119 = ADVANCED_FACE ( 'NONE', ( #38 ), #198, .F. ) ;
#120 = APPROVAL_PERSON_ORGANIZATION ( #47, #171, #298 ) ;
#121 = PERSON_AND_ORGANIZATION ( #149, #226 ) ;
#122 = ORIENTED_EDGE ( 'NONE', *, *, #269, .F. ) ;
#123 = ADVANCED_BREP_SHAPE_REPRESENTATION ( 'ed73', ( #143, #248 ), #133 ) ;
#124 = DATE_AND_TIME ( #256, #22 ) ;
#125 = ORIENTED_EDGE ( 'NONE', *, *, #24, .F. ) ;
#126 = VECTOR ( 'NONE', #83, 1000.000000000000000 ) ;
#127 = PERSON_AND_ORGANIZATION ( #149, #226 ) ;
#128 = PRODUCT_DEFINITION_FORMATION_WITH_SPECIFIED_SOURCE ( 'LIBOVOLNÝ', '', #20, .NOT_KNOWN. ) ;
#129 = APPROVAL_ROLE ( '' ) ;
#130 = ORIENTED_EDGE ( 'NONE', *, *, #296, .T. ) ;
#131 = DIRECTION ( 'NONE',  ( -0.000000000000000000, -0.000000000000000000, -1.000000000000000000 ) ) ;
#132 = DIRECTION ( 'NONE',  ( 0.000000000000000000, 0.000000000000000000, 1.000000000000000000 ) ) ;
#133 =( GEOMETRIC_REPRESENTATION_CONTEXT ( 3 ) GLOBAL_UNCERTAINTY_ASSIGNED_CONTEXT ( ( #203 ) ) GLOBAL_UNIT_ASSIGNED_CONTEXT ( ( #176, #206, #277 ) ) REPRESENTATION_CONTEXT ( 'NONE', 'WORKASPACE' ) );
#134 = DIRECTION ( 'NONE',  ( -0.000000000000000000, -0.000000000000000000, -1.000000000000000000 ) ) ;
#135 = CARTESIAN_POINT ( 'NONE',  ( 5.100000000000001421, 6.245698675651502811E-16, 805.0000000000000000 ) ) ;
#136 = CARTESIAN_POINT ( 'NONE',  ( 5.100000000000001421, 6.245698675651502811E-16, 805.0000000000000000 ) ) ;
#137 = DIRECTION ( 'NONE',  ( 0.000000000000000000, 0.000000000000000000, 1.000000000000000000 ) ) ;
#138 = LINE ( 'NONE', #222, #71 ) ;
#139 = DIRECTION ( 'NONE',  ( -1.000000000000000000, 0.000000000000000000, 0.000000000000000000 ) ) ;
#140 = CIRCLE ( 'NONE', #32, 0.1999999999999996503 ) ;
#141 = CARTESIAN_POINT ( 'NONE',  ( 0.000000000000000000, 0.000000000000000000, 5.000000000000000000 ) ) ;
#142 = CIRCLE ( 'NONE', #196, 0.1999999999999996503 ) ;
#143 = MANIFOLD_SOLID_BREP ( 'Zaoblit1', #94 ) ;
#144 = CARTESIAN_POINT ( 'NONE',  ( 0.000000000000000000, 0.000000000000000000, 805.0000000000000000 ) ) ;
#145 = ORIENTED_EDGE ( 'NONE', *, *, #79, .T. ) ;
#146 = DIRECTION ( 'NONE',  ( 0.000000000000000000, 0.000000000000000000, 1.000000000000000000 ) ) ;
#147 = APPROVAL_STATUS ( 'not_yet_approved' ) ;
#148 = LOCAL_TIME ( 11, 38, 16.00000000000000000, #44 ) ;
#149 = PERSON ( 'NEURÈENÝ', 'NEURÈENÝ', 'NEURÈENÝ', ('NEURÈENÝ'), ('NEURÈENÝ'), ('NEURÈENÝ') ) ;
#150 = CC_DESIGN_DATE_AND_TIME_ASSIGNMENT ( #23, #48, ( #98 ) ) ;
#151 = EDGE_LOOP ( 'NONE', ( #152, #125 ) ) ;
#152 = ORIENTED_EDGE ( 'NONE', *, *, #230, .F. ) ;
#153 = AXIS2_PLACEMENT_3D ( 'NONE', #89, #137, #62 ) ;
#154 = ORIENTED_EDGE ( 'NONE', *, *, #242, .T. ) ;
#155 = DIRECTION ( 'NONE',  ( 1.000000000000000000, 0.000000000000000000, 0.000000000000000000 ) ) ;
#156 = FACE_OUTER_BOUND ( 'NONE', #54, .T. ) ;
#157 = DIRECTION ( 'NONE',  ( 1.000000000000000000, 0.000000000000000000, 0.000000000000000000 ) ) ;
#158 = DIRECTION ( 'NONE',  ( 0.000000000000000000, 0.000000000000000000, 1.000000000000000000 ) ) ;
#159 = CYLINDRICAL_SURFACE ( 'NONE', #291, 5.100000000000001421 ) ;
#160 = PERSON_AND_ORGANIZATION ( #149, #226 ) ;
#161 = ORIENTED_EDGE ( 'NONE', *, *, #269, .T. ) ;
#162 = VECTOR ( 'NONE', #134, 1000.000000000000000 ) ;
#163 = APPROVAL_ROLE ( '' ) ;
#164 = ORIENTED_EDGE ( 'NONE', *, *, #79, .F. ) ;
#165 = DIRECTION ( 'NONE',  ( 1.000000000000000000, 0.000000000000000000, 0.000000000000000000 ) ) ;
#166 = ORIENTED_EDGE ( 'NONE', *, *, #233, .T. ) ;
#167 = EDGE_CURVE ( 'NONE', #188, #280, #76, .T. ) ;
#168 = LOCAL_TIME ( 11, 38, 16.00000000000000000, #297 ) ;
#169 = DIRECTION ( 'NONE',  ( -0.000000000000000000, -0.000000000000000000, -1.000000000000000000 ) ) ;
#170 = DIRECTION ( 'NONE',  ( -1.000000000000000000, 1.224646799147353454E-16, 0.000000000000000000 ) ) ;
#171 = APPROVAL ( #187, 'NEURÈENÝ' ) ;
#172 = CARTESIAN_POINT ( 'NONE',  ( 0.000000000000000000, 0.000000000000000000, 5.000000000000000000 ) ) ;
#173 = AXIS2_PLACEMENT_3D ( 'NONE', #223, #17, #247 ) ;
#174 = CARTESIAN_POINT ( 'NONE',  ( 8.000000000000000000, 9.797174393178825657E-16, 5.000000000000000000 ) ) ;
#175 = CARTESIAN_POINT ( 'NONE',  ( 0.000000000000000000, 0.000000000000000000, 5.000000000000000000 ) ) ;
#176 =( LENGTH_UNIT ( ) NAMED_UNIT ( * ) SI_UNIT ( .MILLI., .METRE. ) );
#177 = APPROVAL ( #147, 'NEURÈENÝ' ) ;
#178 = FACE_OUTER_BOUND ( 'NONE', #262, .T. ) ;
#179 = CIRCLE ( 'NONE', #208, 5.100000000000001421 ) ;
#180 = CARTESIAN_POINT ( 'NONE',  ( 5.300000000000000711, 0.000000000000000000, 4.999999999999991118 ) ) ;
#181 = CARTESIAN_POINT ( 'NONE',  ( 5.300000000000000711, 0.000000000000000000, 5.199999999999982414 ) ) ;
#182 = CC_DESIGN_DATE_AND_TIME_ASSIGNMENT ( #209, #189, ( #51 ) ) ;
#183 = DIRECTION ( 'NONE',  ( 1.000000000000000000, 0.000000000000000000, 0.000000000000000000 ) ) ;
#184 = COORDINATED_UNIVERSAL_TIME_OFFSET ( 1, 0, .AHEAD. ) ;
#185 = COORDINATED_UNIVERSAL_TIME_OFFSET ( 1, 0, .AHEAD. ) ;
#186 = DATE_AND_TIME ( #253, #148 ) ;
#187 = APPROVAL_STATUS ( 'not_yet_approved' ) ;
#188 = VERTEX_POINT ( 'NONE', #93 ) ;
#189 = DATE_TIME_ROLE ( 'classification_date' ) ;
#190 = CC_DESIGN_PERSON_AND_ORGANIZATION_ASSIGNMENT ( #160, #72, ( #98 ) ) ;
#191 = EDGE_LOOP ( 'NONE', ( #145, #166 ) ) ;
#192 = ORIENTED_EDGE ( 'NONE', *, *, #242, .F. ) ;
#193 = FACE_OUTER_BOUND ( 'NONE', #219, .T. ) ;
#194 = VECTOR ( 'NONE', #85, 1000.000000000000000 ) ;
#195 = FACE_OUTER_BOUND ( 'NONE', #4, .T. ) ;
#196 = AXIS2_PLACEMENT_3D ( 'NONE', #181, #272, #64 ) ;
#197 = ORIENTED_EDGE ( 'NONE', *, *, #49, .F. ) ;
#198 = PLANE ( 'NONE',  #173 ) ;
#199 = PLANE ( 'NONE',  #207 ) ;
#200 = VERTEX_POINT ( 'NONE', #290 ) ;
#201 = CC_DESIGN_PERSON_AND_ORGANIZATION_ASSIGNMENT ( #121, #211, ( #51 ) ) ;
#202 = DIRECTION ( 'NONE',  ( 0.000000000000000000, 0.000000000000000000, 1.000000000000000000 ) ) ;
#203 = UNCERTAINTY_MEASURE_WITH_UNIT (LENGTH_MEASURE( 1.000000000000000082E-05 ), #176, 'distance_accuracy_value', 'NONE');
#204 = CARTESIAN_POINT ( 'NONE',  ( 8.000000000000000000, 9.797174393178825657E-16, 5.000000000000000000 ) ) ;
#205 = AXIS2_PLACEMENT_3D ( 'NONE', #30, #169, #104 ) ;
#206 =( NAMED_UNIT ( * ) PLANE_ANGLE_UNIT ( ) SI_UNIT ( $, .RADIAN. ) );
#207 = AXIS2_PLACEMENT_3D ( 'NONE', #59, #37, #246 ) ;
#208 = AXIS2_PLACEMENT_3D ( 'NONE', #144, #270, #245 ) ;
#209 = DATE_AND_TIME ( #69, #10 ) ;
#210 = EDGE_LOOP ( 'NONE', ( #115, #70, #279, #46 ) ) ;
#211 = PERSON_AND_ORGANIZATION_ROLE ( 'classification_officer' ) ;
#212 = AXIS2_PLACEMENT_3D ( 'NONE', #287, #105, #155 ) ;
#213 = AXIS2_PLACEMENT_3D ( 'NONE', #41, #227, #19 ) ;
#214 = COORDINATED_UNIVERSAL_TIME_OFFSET ( 1, 0, .AHEAD. ) ;
#215 = CARTESIAN_POINT ( 'NONE',  ( -5.300000000000000711, 6.490628035480971924E-16, 4.999999999999991118 ) ) ;
#216 = VERTEX_POINT ( 'NONE', #180 ) ;
#217 = FACE_OUTER_BOUND ( 'NONE', #231, .T. ) ;
#218 = LINE ( 'NONE', #136, #194 ) ;
#219 = EDGE_LOOP ( 'NONE', ( #154, #28 ) ) ;
#220 = ADVANCED_FACE ( 'NONE', ( #178 ), #40, .T. ) ;
#221 = CARTESIAN_POINT ( 'NONE',  ( -8.000000000000000000, 0.000000000000000000, 5.000000000000000000 ) ) ;
#222 = CARTESIAN_POINT ( 'NONE',  ( -5.100000000000001421, 0.000000000000000000, 805.0000000000000000 ) ) ;
#223 = CARTESIAN_POINT ( 'NONE',  ( 0.000000000000000000, 0.000000000000000000, 0.000000000000000000 ) ) ;
#224 = EDGE_CURVE ( 'NONE', #252, #280, #138, .T. ) ;
#225 = DIRECTION ( 'NONE',  ( 1.000000000000000000, 0.000000000000000000, -0.000000000000000000 ) ) ;
#226 = ORGANIZATION ( 'NEURÈENÝ', 'NEURÈENÝ', '' ) ;
#227 = DIRECTION ( 'NONE',  ( 0.000000000000000000, 0.000000000000000000, 1.000000000000000000 ) ) ;
#228 = PERSON_AND_ORGANIZATION_ROLE ( 'creator' ) ;
#229 = APPLICATION_PROTOCOL_DEFINITION ( 'international standard', 'config_control_design', 1994, #244 ) ;
#230 = EDGE_CURVE ( 'NONE', #36, #200, #114, .T. ) ;
#231 = EDGE_LOOP ( 'NONE', ( #81, #192, #8, #57 ) ) ;
#232 = APPLICATION_PROTOCOL_DEFINITION ( 'international standard', 'config_control_design', 1994, #68 ) ;
#233 = EDGE_CURVE ( 'NONE', #293, #304, #96, .T. ) ;
#234 = CIRCLE ( 'NONE', #258, 5.100000000000001421 ) ;
#235 = PERSON_AND_ORGANIZATION ( #149, #226 ) ;
#236 = CARTESIAN_POINT ( 'NONE',  ( -8.000000000000000000, 0.000000000000000000, 0.000000000000000000 ) ) ;
#237 = DIRECTION ( 'NONE',  ( 1.000000000000000000, 0.000000000000000000, 0.000000000000000000 ) ) ;
#238 = CARTESIAN_POINT ( 'NONE',  ( 0.000000000000000000, 0.000000000000000000, 5.199999999999982414 ) ) ;
#239 = AXIS2_PLACEMENT_3D ( 'NONE', #271, #273, #87 ) ;
#240 = ORIENTED_EDGE ( 'NONE', *, *, #34, .F. ) ;
#241 = CARTESIAN_POINT ( 'NONE',  ( 0.000000000000000000, 0.000000000000000000, 0.000000000000000000 ) ) ;
#242 = EDGE_CURVE ( 'NONE', #252, #7, #179, .T. ) ;
#243 = DIRECTION ( 'NONE',  ( -0.000000000000000000, -0.000000000000000000, -1.000000000000000000 ) ) ;
#244 = APPLICATION_CONTEXT ( 'configuration controlled 3d designs of mechanical parts and assemblies' ) ;
#245 = DIRECTION ( 'NONE',  ( 1.000000000000000000, 0.000000000000000000, 0.000000000000000000 ) ) ;
#246 = DIRECTION ( 'NONE',  ( 1.000000000000000000, 0.000000000000000000, -0.000000000000000000 ) ) ;
#247 = DIRECTION ( 'NONE',  ( 1.000000000000000000, 0.000000000000000000, -0.000000000000000000 ) ) ;
#248 = AXIS2_PLACEMENT_3D ( 'NONE', #74, #146, #165 ) ;
#249 = APPROVAL_DATE_TIME ( #186, #177 ) ;
#250 = DESIGN_CONTEXT ( 'detailed design', #244, 'design' ) ;
#251 = PERSON_AND_ORGANIZATION_ROLE ( 'design_supplier' ) ;
#252 = VERTEX_POINT ( 'NONE', #294 ) ;
#253 = CALENDAR_DATE ( 2022, 20, 6 ) ;
#254 = CC_DESIGN_PERSON_AND_ORGANIZATION_ASSIGNMENT ( #127, #26, ( #20 ) ) ;
#255 = ORIENTED_EDGE ( 'NONE', *, *, #296, .F. ) ;
#256 = CALENDAR_DATE ( 2022, 20, 6 ) ;
#257 = ORIENTED_EDGE ( 'NONE', *, *, #167, .T. ) ;
#258 = AXIS2_PLACEMENT_3D ( 'NONE', #264, #132, #33 ) ;
#259 = APPROVAL_PERSON_ORGANIZATION ( #235, #265, #129 ) ;
#260 = DIRECTION ( 'NONE',  ( 0.000000000000000000, 0.000000000000000000, 1.000000000000000000 ) ) ;
#261 = PRODUCT_RELATED_PRODUCT_CATEGORY ( 'detail', '', ( #20 ) ) ;
#262 = EDGE_LOOP ( 'NONE', ( #240, #164, #281, #300 ) ) ;
#263 = CARTESIAN_POINT ( 'NONE',  ( 0.000000000000000000, 0.000000000000000000, 805.0000000000000000 ) ) ;
#264 = CARTESIAN_POINT ( 'NONE',  ( 0.000000000000000000, 0.000000000000000000, 805.0000000000000000 ) ) ;
#265 = APPROVAL ( #27, 'NEURÈENÝ' ) ;
#266 = DIRECTION ( 'NONE',  ( 1.000000000000000000, 0.000000000000000000, 0.000000000000000000 ) ) ;
#267 = CIRCLE ( 'NONE', #289, 8.000000000000000000 ) ;
#268 = FACE_BOUND ( 'NONE', #15, .T. ) ;
#269 = EDGE_CURVE ( 'NONE', #188, #216, #142, .T. ) ;
#270 = DIRECTION ( 'NONE',  ( 0.000000000000000000, 0.000000000000000000, 1.000000000000000000 ) ) ;
#271 = CARTESIAN_POINT ( 'NONE',  ( 0.000000000000000000, 0.000000000000000000, 5.000000000000000000 ) ) ;
#272 = DIRECTION ( 'NONE',  ( 0.000000000000000000, -1.000000000000000000, 0.000000000000000000 ) ) ;
#273 = DIRECTION ( 'NONE',  ( -0.000000000000000000, -0.000000000000000000, -1.000000000000000000 ) ) ;
#274 = CIRCLE ( 'NONE', #213, 5.100000000000001421 ) ;
#275 = PRODUCT_DEFINITION_SHAPE ( 'NONE', 'NONE',  #98 ) ;
#276 = EDGE_CURVE ( 'NONE', #280, #188, #274, .T. ) ;
#277 =( NAMED_UNIT ( * ) SI_UNIT ( $, .STERADIAN. ) SOLID_ANGLE_UNIT ( ) );
#278 = CALENDAR_DATE ( 2022, 20, 6 ) ;
#279 = ORIENTED_EDGE ( 'NONE', *, *, #24, .T. ) ;
#280 = VERTEX_POINT ( 'NONE', #117 ) ;
#281 = ORIENTED_EDGE ( 'NONE', *, *, #86, .T. ) ;
#282 = LINE ( 'NONE', #80, #162 ) ;
#283 = PLANE ( 'NONE',  #16 ) ;
#284 = CIRCLE ( 'NONE', #13, 8.000000000000000000 ) ;
#285 = DIRECTION ( 'NONE',  ( 1.000000000000000000, 0.000000000000000000, 0.000000000000000000 ) ) ;
#286 = CC_DESIGN_APPROVAL ( #177, ( #128 ) ) ;
#287 = CARTESIAN_POINT ( 'NONE',  ( 0.000000000000000000, 0.000000000000000000, 5.000000000000000000 ) ) ;
#288 = FACE_OUTER_BOUND ( 'NONE', #191, .T. ) ;
#289 = AXIS2_PLACEMENT_3D ( 'NONE', #172, #260, #237 ) ;
#290 = CARTESIAN_POINT ( 'NONE',  ( 8.000000000000000000, 9.797174393178825657E-16, 0.000000000000000000 ) ) ;
#291 = AXIS2_PLACEMENT_3D ( 'NONE', #292, #14, #139 ) ;
#292 = CARTESIAN_POINT ( 'NONE',  ( 0.000000000000000000, 0.000000000000000000, 805.0000000000000000 ) ) ;
#293 = VERTEX_POINT ( 'NONE', #204 ) ;
#294 = CARTESIAN_POINT ( 'NONE',  ( -5.100000000000001421, 0.000000000000000000, 805.0000000000000000 ) ) ;
#295 = CARTESIAN_POINT ( 'NONE',  ( 0.000000000000000000, 0.000000000000000000, 5.000000000000000000 ) ) ;
#296 = EDGE_CURVE ( 'NONE', #43, #216, #77, .T. ) ;
#297 = COORDINATED_UNIVERSAL_TIME_OFFSET ( 1, 0, .AHEAD. ) ;
#298 = APPROVAL_ROLE ( '' ) ;
#299 = SHAPE_DEFINITION_REPRESENTATION ( #275, #123 ) ;
#300 = ORIENTED_EDGE ( 'NONE', *, *, #230, .T. ) ;
#301 = TOROIDAL_SURFACE ( 'NONE', #82, 5.300000000000000711, 0.2000000000000000111 ) ;
#302 = MECHANICAL_CONTEXT ( 'NONE', #68, 'mechanical' ) ;
#303 = AXIS2_PLACEMENT_3D ( 'NONE', #11, #91, #157 ) ;
#304 = VERTEX_POINT ( 'NONE', #221 ) ;
#305 = LOCAL_TIME ( 11, 38, 16.00000000000000000, #214 ) ;
#306 = APPROVAL_DATE_TIME ( #124, #171 ) ;
#307 = ORIENTED_EDGE ( 'NONE', *, *, #45, .T. ) ;
ENDSEC;
END-ISO-10303-21;
