ISO-10303-21;
HEADER;
FILE_DESCRIPTION (( 'STEP AP203' ),
    '1' );
FILE_NAME ('f883.STEP',
    '2022-06-20T10:14:12',
    ( '' ),
    ( '' ),
    'SwSTEP 2.0',
    'SolidWorks 2019',
    '' );
FILE_SCHEMA (( 'CONFIG_CONTROL_DESIGN' ));
ENDSEC;

DATA;
#1 = APPROVAL_STATUS ( 'not_yet_approved' ) ;
#2 = EDGE_CURVE ( 'NONE', #39, #194, #171, .T. ) ;
#3 = MECHANICAL_CONTEXT ( 'NONE', #220, 'mechanical' ) ;
#4 =( NAMED_UNIT ( * ) SI_UNIT ( $, .STERADIAN. ) SOLID_ANGLE_UNIT ( ) );
#5 = ORIENTED_EDGE ( 'NONE', *, *, #252, .F. ) ;
#6 = TOROIDAL_SURFACE ( 'NONE', #216, 1.800000000000000266, 0.2000000000000000111 ) ;
#7 = PERSON_AND_ORGANIZATION ( #102, #101 ) ;
#8 = EDGE_LOOP ( 'NONE', ( #218, #243 ) ) ;
#9 = EDGE_CURVE ( 'NONE', #241, #195, #168, .T. ) ;
#10 = DIRECTION ( 'NONE',  ( 0.000000000000000000, 0.000000000000000000, 1.000000000000000000 ) ) ;
#11 = FACE_OUTER_BOUND ( 'NONE', #107, .T. ) ;
#12 = AXIS2_PLACEMENT_3D ( 'NONE', #219, #37, #178 ) ;
#13 = CARTESIAN_POINT ( 'NONE',  ( -3.000000000000000444, 0.000000000000000000, 3.000000000000000000 ) ) ;
#14 = LOCAL_TIME ( 12, 14, 12.00000000000000000, #60 ) ;
#15 = DIRECTION ( 'NONE',  ( 1.000000000000000000, 0.000000000000000000, 0.000000000000000000 ) ) ;
#16 = DIRECTION ( 'NONE',  ( 1.000000000000000000, 0.000000000000000000, -0.000000000000000000 ) ) ;
#17 = AXIS2_PLACEMENT_3D ( 'NONE', #70, #97, #96 ) ;
#18 = CARTESIAN_POINT ( 'NONE',  ( 0.000000000000000000, 0.000000000000000000, 3.199999999999994404 ) ) ;
#19 = AXIS2_PLACEMENT_3D ( 'NONE', #207, #44, #72 ) ;
#20 = DIRECTION ( 'NONE',  ( -1.000000000000000000, 0.000000000000000000, 0.000000000000000000 ) ) ;
#21 = DIRECTION ( 'NONE',  ( -0.000000000000000000, -0.000000000000000000, -1.000000000000000000 ) ) ;
#22 = VERTEX_POINT ( 'NONE', #196 ) ;
#23 = CIRCLE ( 'NONE', #278, 1.600000000000000089 ) ;
#24 = CARTESIAN_POINT ( 'NONE',  ( 1.800000000000000266, 0.000000000000000000, 2.999999999999997335 ) ) ;
#25 = VECTOR ( 'NONE', #21, 1000.000000000000000 ) ;
#26 = ADVANCED_FACE ( 'NONE', ( #66 ), #143, .F. ) ;
#27 = PERSON_AND_ORGANIZATION ( #102, #101 ) ;
#28 = EDGE_CURVE ( 'NONE', #191, #194, #184, .T. ) ;
#29 = DIRECTION ( 'NONE',  ( 0.000000000000000000, 0.000000000000000000, 1.000000000000000000 ) ) ;
#30 = PERSON_AND_ORGANIZATION_ROLE ( 'creator' ) ;
#31 = DATE_AND_TIME ( #192, #260 ) ;
#32 = ORIENTED_EDGE ( 'NONE', *, *, #9, .T. ) ;
#33 = CC_DESIGN_PERSON_AND_ORGANIZATION_ASSIGNMENT ( #78, #164, ( #193 ) ) ;
#34 = CARTESIAN_POINT ( 'NONE',  ( 0.000000000000000000, 0.000000000000000000, 0.000000000000000000 ) ) ;
#35 = DATE_TIME_ROLE ( 'classification_date' ) ;
#36 = ORIENTED_EDGE ( 'NONE', *, *, #28, .F. ) ;
#37 = DIRECTION ( 'NONE',  ( -0.000000000000000000, -0.000000000000000000, -1.000000000000000000 ) ) ;
#38 = EDGE_CURVE ( 'NONE', #292, #304, #237, .T. ) ;
#39 = VERTEX_POINT ( 'NONE', #251 ) ;
#40 = VECTOR ( 'NONE', #159, 1000.000000000000000 ) ;
#41 = LOCAL_TIME ( 12, 14, 12.00000000000000000, #213 ) ;
#42 = DIRECTION ( 'NONE',  ( 0.000000000000000000, 0.000000000000000000, 1.000000000000000000 ) ) ;
#43 = DIRECTION ( 'NONE',  ( 1.000000000000000000, 0.000000000000000000, 0.000000000000000000 ) ) ;
#44 = DIRECTION ( 'NONE',  ( -0.000000000000000000, -0.000000000000000000, -1.000000000000000000 ) ) ;
#45 = FACE_OUTER_BOUND ( 'NONE', #8, .T. ) ;
#46 = ORIENTED_EDGE ( 'NONE', *, *, #48, .F. ) ;
#47 = CYLINDRICAL_SURFACE ( 'NONE', #211, 3.000000000000000444 ) ;
#48 = EDGE_CURVE ( 'NONE', #304, #292, #23, .T. ) ;
#49 = AXIS2_PLACEMENT_3D ( 'NONE', #257, #280, #305 ) ;
#50 = APPLICATION_PROTOCOL_DEFINITION ( 'international standard', 'config_control_design', 1994, #236 ) ;
#51 = APPROVAL_STATUS ( 'not_yet_approved' ) ;
#52 = CARTESIAN_POINT ( 'NONE',  ( -1.600000000000000089, 0.000000000000000000, 103.0000000000000142 ) ) ;
#53 = ORIENTED_EDGE ( 'NONE', *, *, #294, .T. ) ;
#54 = ORIENTED_EDGE ( 'NONE', *, *, #271, .F. ) ;
#55 = AXIS2_PLACEMENT_3D ( 'NONE', #203, #74, #155 ) ;
#56 = APPROVAL_PERSON_ORGANIZATION ( #27, #116, #209 ) ;
#57 = ORIENTED_EDGE ( 'NONE', *, *, #297, .T. ) ;
#58 = PERSON_AND_ORGANIZATION ( #102, #101 ) ;
#59 = EDGE_CURVE ( 'NONE', #194, #39, #104, .T. ) ;
#60 = COORDINATED_UNIVERSAL_TIME_OFFSET ( 1, 0, .AHEAD. ) ;
#61 = ORIENTED_EDGE ( 'NONE', *, *, #177, .F. ) ;
#62 = ORIENTED_EDGE ( 'NONE', *, *, #2, .F. ) ;
#63 = PERSON_AND_ORGANIZATION_ROLE ( 'design_supplier' ) ;
#64 = ORIENTED_EDGE ( 'NONE', *, *, #189, .F. ) ;
#65 = CARTESIAN_POINT ( 'NONE',  ( 3.000000000000000444, 3.673940397442060361E-16, 0.000000000000000000 ) ) ;
#66 = FACE_OUTER_BOUND ( 'NONE', #190, .T. ) ;
#67 = CIRCLE ( 'NONE', #235, 3.000000000000000444 ) ;
#68 = APPROVAL_PERSON_ORGANIZATION ( #186, #242, #121 ) ;
#69 = FACE_OUTER_BOUND ( 'NONE', #109, .T. ) ;
#70 = CARTESIAN_POINT ( 'NONE',  ( 0.000000000000000000, 0.000000000000000000, 3.199999999999994404 ) ) ;
#71 = AXIS2_PLACEMENT_3D ( 'NONE', #34, #10, #247 ) ;
#72 = DIRECTION ( 'NONE',  ( -1.000000000000000000, 0.000000000000000000, 0.000000000000000000 ) ) ;
#73 = AXIS2_PLACEMENT_3D ( 'NONE', #225, #29, #119 ) ;
#74 = DIRECTION ( 'NONE',  ( 0.000000000000000000, 0.000000000000000000, 1.000000000000000000 ) ) ;
#75 = CALENDAR_DATE ( 2022, 20, 6 ) ;
#76 = LINE ( 'NONE', #181, #40 ) ;
#77 = TOROIDAL_SURFACE ( 'NONE', #17, 1.800000000000000266, 0.2000000000000000111 ) ;
#78 = PERSON_AND_ORGANIZATION ( #102, #101 ) ;
#79 = DIRECTION ( 'NONE',  ( 1.000000000000000000, 0.000000000000000000, 0.000000000000000000 ) ) ;
#80 = ORIENTED_EDGE ( 'NONE', *, *, #152, .F. ) ;
#81 = APPROVAL_DATE_TIME ( #267, #116 ) ;
#82 = AXIS2_PLACEMENT_3D ( 'NONE', #302, #202, #111 ) ;
#83 = APPROVAL_PERSON_ORGANIZATION ( #58, #283, #221 ) ;
#84 = DIRECTION ( 'NONE',  ( 0.000000000000000000, 0.000000000000000000, 1.000000000000000000 ) ) ;
#85 = VERTEX_POINT ( 'NONE', #65 ) ;
#86 = CALENDAR_DATE ( 2022, 20, 6 ) ;
#87 = DIRECTION ( 'NONE',  ( 0.000000000000000000, 0.000000000000000000, -1.000000000000000000 ) ) ;
#88 = VECTOR ( 'NONE', #268, 1000.000000000000000 ) ;
#89 = ORIENTED_EDGE ( 'NONE', *, *, #152, .T. ) ;
#90 = ORIENTED_EDGE ( 'NONE', *, *, #2, .T. ) ;
#91 = ADVANCED_BREP_SHAPE_REPRESENTATION ( 'f883', ( #229, #73 ), #250 ) ;
#92 = ORIENTED_EDGE ( 'NONE', *, *, #59, .T. ) ;
#93 = DIRECTION ( 'NONE',  ( 0.000000000000000000, 0.000000000000000000, 1.000000000000000000 ) ) ;
#94 = ADVANCED_FACE ( 'NONE', ( #11 ), #6, .F. ) ;
#95 = CARTESIAN_POINT ( 'NONE',  ( 1.600000000000000089, 1.959434878635765230E-16, 3.199999999999994404 ) ) ;
#96 = DIRECTION ( 'NONE',  ( 1.000000000000000000, 0.000000000000000000, 0.000000000000000000 ) ) ;
#97 = DIRECTION ( 'NONE',  ( 0.000000000000000000, 0.000000000000000000, 1.000000000000000000 ) ) ;
#98 = CARTESIAN_POINT ( 'NONE',  ( 0.000000000000000000, 0.000000000000000000, 3.000000000000000000 ) ) ;
#99 = DIRECTION ( 'NONE',  ( -1.000000000000000000, 1.224646799147354686E-16, 0.000000000000000000 ) ) ;
#100 = ORIENTED_EDGE ( 'NONE', *, *, #38, .F. ) ;
#101 = ORGANIZATION ( 'NEURÈENÝ', 'NEURÈENÝ', '' ) ;
#102 = PERSON ( 'NEURÈENÝ', 'NEURÈENÝ', 'NEURÈENÝ', ('NEURÈENÝ'), ('NEURÈENÝ'), ('NEURÈENÝ') ) ;
#103 = ADVANCED_FACE ( 'NONE', ( #108, #254 ), #279, .T. ) ;
#104 = CIRCLE ( 'NONE', #112, 1.800000000000000266 ) ;
#105 = ORIENTED_EDGE ( 'NONE', *, *, #9, .F. ) ;
#106 = CARTESIAN_POINT ( 'NONE',  ( 0.000000000000000000, 0.000000000000000000, 103.0000000000000142 ) ) ;
#107 = EDGE_LOOP ( 'NONE', ( #179, #265, #151, #62 ) ) ;
#108 = FACE_BOUND ( 'NONE', #298, .T. ) ;
#109 = EDGE_LOOP ( 'NONE', ( #238, #57, #222, #36 ) ) ;
#110 = ADVANCED_FACE ( 'NONE', ( #69 ), #77, .F. ) ;
#111 = DIRECTION ( 'NONE',  ( 1.000000000000000000, 0.000000000000000000, 0.000000000000000000 ) ) ;
#112 = AXIS2_PLACEMENT_3D ( 'NONE', #270, #273, #128 ) ;
#113 = CIRCLE ( 'NONE', #55, 3.000000000000000444 ) ;
#114 = CYLINDRICAL_SURFACE ( 'NONE', #19, 1.600000000000000089 ) ;
#115 = CARTESIAN_POINT ( 'NONE',  ( 0.000000000000000000, 0.000000000000000000, 3.199999999999994404 ) ) ;
#116 = APPROVAL ( #1, 'NEURÈENÝ' ) ;
#117 = CARTESIAN_POINT ( 'NONE',  ( 0.000000000000000000, 0.000000000000000000, 0.000000000000000000 ) ) ;
#118 = CARTESIAN_POINT ( 'NONE',  ( -3.000000000000000444, 0.000000000000000000, 0.000000000000000000 ) ) ;
#119 = DIRECTION ( 'NONE',  ( 1.000000000000000000, 0.000000000000000000, 0.000000000000000000 ) ) ;
#120 = CC_DESIGN_PERSON_AND_ORGANIZATION_ASSIGNMENT ( #239, #30, ( #205 ) ) ;
#121 = APPROVAL_ROLE ( '' ) ;
#122 = CIRCLE ( 'NONE', #82, 3.000000000000000444 ) ;
#123 = DIRECTION ( 'NONE',  ( 0.000000000000000000, 0.000000000000000000, 1.000000000000000000 ) ) ;
#124 = EDGE_LOOP ( 'NONE', ( #172, #46, #175, #165 ) ) ;
#125 = ORIENTED_EDGE ( 'NONE', *, *, #271, .T. ) ;
#126 = EDGE_LOOP ( 'NONE', ( #61, #150, #32, #215 ) ) ;
#127 = APPROVAL_STATUS ( 'not_yet_approved' ) ;
#128 = DIRECTION ( 'NONE',  ( 1.000000000000000000, 0.000000000000000000, 0.000000000000000000 ) ) ;
#129 = DIRECTION ( 'NONE',  ( 0.000000000000000000, -1.000000000000000000, 0.000000000000000000 ) ) ;
#130 = ORIENTED_EDGE ( 'NONE', *, *, #177, .T. ) ;
#131 = DIRECTION ( 'NONE',  ( 0.000000000000000000, 0.000000000000000000, 1.000000000000000000 ) ) ;
#132 = ADVANCED_FACE ( 'NONE', ( #158 ), #185, .T. ) ;
#133 = DIRECTION ( 'NONE',  ( 0.000000000000000000, 0.000000000000000000, 1.000000000000000000 ) ) ;
#134 = LINE ( 'NONE', #231, #25 ) ;
#135 = LINE ( 'NONE', #226, #173 ) ;
#136 = DATE_AND_TIME ( #75, #41 ) ;
#137 = ADVANCED_FACE ( 'NONE', ( #277 ), #160, .T. ) ;
#138 =( NAMED_UNIT ( * ) PLANE_ANGLE_UNIT ( ) SI_UNIT ( $, .RADIAN. ) );
#139 =( LENGTH_UNIT ( ) NAMED_UNIT ( * ) SI_UNIT ( .MILLI., .METRE. ) );
#140 = CARTESIAN_POINT ( 'NONE',  ( 1.600000000000000089, 1.959434878635765230E-16, 103.0000000000000142 ) ) ;
#141 = COORDINATED_UNIVERSAL_TIME_OFFSET ( 1, 0, .AHEAD. ) ;
#142 = PERSON_AND_ORGANIZATION_ROLE ( 'creator' ) ;
#143 = PLANE ( 'NONE',  #71 ) ;
#144 = COORDINATED_UNIVERSAL_TIME_OFFSET ( 1, 0, .AHEAD. ) ;
#145 = CC_DESIGN_APPROVAL ( #116, ( #208 ) ) ;
#146 = CC_DESIGN_DATE_AND_TIME_ASSIGNMENT ( #176, #35, ( #301 ) ) ;
#147 = APPLICATION_PROTOCOL_DEFINITION ( 'international standard', 'config_control_design', 1994, #220 ) ;
#148 = EDGE_LOOP ( 'NONE', ( #100, #275, #295, #5 ) ) ;
#149 = CALENDAR_DATE ( 2022, 20, 6 ) ;
#150 = ORIENTED_EDGE ( 'NONE', *, *, #294, .F. ) ;
#151 = ORIENTED_EDGE ( 'NONE', *, *, #28, .T. ) ;
#152 = EDGE_CURVE ( 'NONE', #296, #241, #113, .T. ) ;
#153 = AXIS2_PLACEMENT_3D ( 'NONE', #115, #276, #187 ) ;
#154 = DIRECTION ( 'NONE',  ( 1.000000000000000000, 0.000000000000000000, 0.000000000000000000 ) ) ;
#155 = DIRECTION ( 'NONE',  ( 1.000000000000000000, 0.000000000000000000, 0.000000000000000000 ) ) ;
#156 = FACE_OUTER_BOUND ( 'NONE', #124, .T. ) ;
#157 = EDGE_CURVE ( 'NONE', #292, #191, #76, .T. ) ;
#158 = FACE_OUTER_BOUND ( 'NONE', #148, .T. ) ;
#159 = DIRECTION ( 'NONE',  ( -0.000000000000000000, -0.000000000000000000, -1.000000000000000000 ) ) ;
#160 = CYLINDRICAL_SURFACE ( 'NONE', #206, 3.000000000000000444 ) ;
#161 = ADVANCED_FACE ( 'NONE', ( #156 ), #114, .T. ) ;
#162 = CLOSED_SHELL ( 'NONE', ( #110, #132, #137, #169, #103, #26, #161, #201, #94 ) ) ;
#163 = CC_DESIGN_SECURITY_CLASSIFICATION ( #301, ( #208 ) ) ;
#164 = PERSON_AND_ORGANIZATION_ROLE ( 'design_owner' ) ;
#165 = ORIENTED_EDGE ( 'NONE', *, *, #223, .T. ) ;
#166 = CALENDAR_DATE ( 2022, 20, 6 ) ;
#167 = PERSON_AND_ORGANIZATION ( #102, #101 ) ;
#168 = LINE ( 'NONE', #13, #88 ) ;
#169 = ADVANCED_FACE ( 'NONE', ( #259 ), #47, .T. ) ;
#170 = PERSON_AND_ORGANIZATION ( #102, #101 ) ;
#171 = CIRCLE ( 'NONE', #12, 1.800000000000000266 ) ;
#172 = ORIENTED_EDGE ( 'NONE', *, *, #157, .F. ) ;
#173 = VECTOR ( 'NONE', #180, 1000.000000000000000 ) ;
#174 = SECURITY_CLASSIFICATION_LEVEL ( 'unclassified' ) ;
#175 = ORIENTED_EDGE ( 'NONE', *, *, #252, .T. ) ;
#176 = DATE_AND_TIME ( #149, #266 ) ;
#177 = EDGE_CURVE ( 'NONE', #296, #85, #135, .T. ) ;
#178 = DIRECTION ( 'NONE',  ( 1.000000000000000000, 0.000000000000000000, 0.000000000000000000 ) ) ;
#179 = ORIENTED_EDGE ( 'NONE', *, *, #297, .F. ) ;
#180 = DIRECTION ( 'NONE',  ( -0.000000000000000000, -0.000000000000000000, -1.000000000000000000 ) ) ;
#181 = CARTESIAN_POINT ( 'NONE',  ( 1.600000000000000089, 1.959434878635765230E-16, 103.0000000000000142 ) ) ;
#182 = EDGE_CURVE ( 'NONE', #191, #22, #306, .T. ) ;
#183 = DIRECTION ( 'NONE',  ( -0.000000000000000000, -0.000000000000000000, -1.000000000000000000 ) ) ;
#184 = CIRCLE ( 'NONE', #274, 0.2000000000000000944 ) ;
#185 = CYLINDRICAL_SURFACE ( 'NONE', #49, 1.600000000000000089 ) ;
#186 = PERSON_AND_ORGANIZATION ( #102, #101 ) ;
#187 = DIRECTION ( 'NONE',  ( 1.000000000000000000, 0.000000000000000000, 0.000000000000000000 ) ) ;
#188 = DIRECTION ( 'NONE',  ( 1.224646799147353207E-16, 1.000000000000000000, -0.000000000000000000 ) ) ;
#189 = EDGE_CURVE ( 'NONE', #195, #85, #122, .T. ) ;
#190 = EDGE_LOOP ( 'NONE', ( #64, #54 ) ) ;
#191 = VERTEX_POINT ( 'NONE', #95 ) ;
#192 = CALENDAR_DATE ( 2022, 20, 6 ) ;
#193 = PRODUCT ( 'f883', 'f883', '', ( #3 ) ) ;
#194 = VERTEX_POINT ( 'NONE', #24 ) ;
#195 = VERTEX_POINT ( 'NONE', #118 ) ;
#196 = CARTESIAN_POINT ( 'NONE',  ( -1.600000000000000089, 0.000000000000000000, 3.199999999999994404 ) ) ;
#197 = AXIS2_PLACEMENT_3D ( 'NONE', #227, #233, #16 ) ;
#198 = PLANE ( 'NONE',  #249 ) ;
#199 = LOCAL_TIME ( 12, 14, 12.00000000000000000, #286 ) ;
#200 = CARTESIAN_POINT ( 'NONE',  ( 0.000000000000000000, 0.000000000000000000, 3.199999999999994404 ) ) ;
#201 = ADVANCED_FACE ( 'NONE', ( #45 ), #198, .T. ) ;
#202 = DIRECTION ( 'NONE',  ( 0.000000000000000000, 0.000000000000000000, 1.000000000000000000 ) ) ;
#203 = CARTESIAN_POINT ( 'NONE',  ( 0.000000000000000000, 0.000000000000000000, 3.000000000000000000 ) ) ;
#204 = EDGE_LOOP ( 'NONE', ( #80, #130, #125, #105 ) ) ;
#205 = PRODUCT_DEFINITION ( 'NEZNÁMÝ', '', #208, #210 ) ;
#206 = AXIS2_PLACEMENT_3D ( 'NONE', #98, #258, #303 ) ;
#207 = CARTESIAN_POINT ( 'NONE',  ( 0.000000000000000000, 0.000000000000000000, 103.0000000000000142 ) ) ;
#208 = PRODUCT_DEFINITION_FORMATION_WITH_SPECIFIED_SOURCE ( 'LIBOVOLNÝ', '', #193, .NOT_KNOWN. ) ;
#209 = APPROVAL_ROLE ( '' ) ;
#210 = DESIGN_CONTEXT ( 'detailed design', #236, 'design' ) ;
#211 = AXIS2_PLACEMENT_3D ( 'NONE', #282, #183, #20 ) ;
#212 = AXIS2_PLACEMENT_3D ( 'NONE', #240, #123, #79 ) ;
#213 = COORDINATED_UNIVERSAL_TIME_OFFSET ( 1, 0, .AHEAD. ) ;
#214 = CARTESIAN_POINT ( 'NONE',  ( 3.000000000000000444, 3.673940397442060361E-16, 3.000000000000000000 ) ) ;
#215 = ORIENTED_EDGE ( 'NONE', *, *, #189, .T. ) ;
#216 = AXIS2_PLACEMENT_3D ( 'NONE', #18, #131, #43 ) ;
#217 = PRODUCT_RELATED_PRODUCT_CATEGORY ( 'detail', '', ( #193 ) ) ;
#218 = ORIENTED_EDGE ( 'NONE', *, *, #48, .T. ) ;
#219 = CARTESIAN_POINT ( 'NONE',  ( 0.000000000000000000, 0.000000000000000000, 3.000000000000000000 ) ) ;
#220 = APPLICATION_CONTEXT ( 'configuration controlled 3d designs of mechanical parts and assemblies' ) ;
#221 = APPROVAL_ROLE ( '' ) ;
#222 = ORIENTED_EDGE ( 'NONE', *, *, #59, .F. ) ;
#223 = EDGE_CURVE ( 'NONE', #22, #191, #289, .T. ) ;
#224 = CARTESIAN_POINT ( 'NONE',  ( 0.000000000000000000, 0.000000000000000000, 103.0000000000000142 ) ) ;
#225 = CARTESIAN_POINT ( 'NONE',  ( 0.000000000000000000, 0.000000000000000000, 0.000000000000000000 ) ) ;
#226 = CARTESIAN_POINT ( 'NONE',  ( 3.000000000000000444, 3.673940397442060361E-16, 3.000000000000000000 ) ) ;
#227 = CARTESIAN_POINT ( 'NONE',  ( 0.000000000000000000, 0.000000000000000000, 3.000000000000000000 ) ) ;
#228 = CIRCLE ( 'NONE', #212, 3.000000000000000444 ) ;
#229 = MANIFOLD_SOLID_BREP ( 'Zaoblit1', #162 ) ;
#230 = DIRECTION ( 'NONE',  ( 1.000000000000000000, 0.000000000000000000, 0.000000000000000000 ) ) ;
#231 = CARTESIAN_POINT ( 'NONE',  ( -1.600000000000000089, 0.000000000000000000, 103.0000000000000142 ) ) ;
#232 = CC_DESIGN_PERSON_AND_ORGANIZATION_ASSIGNMENT ( #170, #63, ( #208 ) ) ;
#233 = DIRECTION ( 'NONE',  ( 0.000000000000000000, 0.000000000000000000, 1.000000000000000000 ) ) ;
#234 = DATE_TIME_ROLE ( 'creation_date' ) ;
#235 = AXIS2_PLACEMENT_3D ( 'NONE', #117, #84, #264 ) ;
#236 = APPLICATION_CONTEXT ( 'configuration controlled 3d designs of mechanical parts and assemblies' ) ;
#237 = CIRCLE ( 'NONE', #288, 1.600000000000000089 ) ;
#238 = ORIENTED_EDGE ( 'NONE', *, *, #223, .F. ) ;
#239 = PERSON_AND_ORGANIZATION ( #102, #101 ) ;
#240 = CARTESIAN_POINT ( 'NONE',  ( 0.000000000000000000, 0.000000000000000000, 3.000000000000000000 ) ) ;
#241 = VERTEX_POINT ( 'NONE', #253 ) ;
#242 = APPROVAL ( #51, 'NEURÈENÝ' ) ;
#243 = ORIENTED_EDGE ( 'NONE', *, *, #38, .T. ) ;
#244 = CIRCLE ( 'NONE', #285, 0.1999999999999998723 ) ;
#245 = CARTESIAN_POINT ( 'NONE',  ( 1.800000000000000266, 0.000000000000000000, 3.199999999999994404 ) ) ;
#246 = APPROVAL_DATE_TIME ( #31, #283 ) ;
#247 = DIRECTION ( 'NONE',  ( 1.000000000000000000, 0.000000000000000000, -0.000000000000000000 ) ) ;
#248 = DIRECTION ( 'NONE',  ( 0.000000000000000000, 0.000000000000000000, 1.000000000000000000 ) ) ;
#249 = AXIS2_PLACEMENT_3D ( 'NONE', #299, #93, #307 ) ;
#250 =( GEOMETRIC_REPRESENTATION_CONTEXT ( 3 ) GLOBAL_UNCERTAINTY_ASSIGNED_CONTEXT ( ( #284 ) ) GLOBAL_UNIT_ASSIGNED_CONTEXT ( ( #139, #138, #4 ) ) REPRESENTATION_CONTEXT ( 'NONE', 'WORKASPACE' ) );
#251 = CARTESIAN_POINT ( 'NONE',  ( -1.800000000000000266, 2.204364238465236069E-16, 2.999999999999997335 ) ) ;
#252 = EDGE_CURVE ( 'NONE', #304, #22, #134, .T. ) ;
#253 = CARTESIAN_POINT ( 'NONE',  ( -3.000000000000000444, 0.000000000000000000, 3.000000000000000000 ) ) ;
#254 = FACE_OUTER_BOUND ( 'NONE', #293, .T. ) ;
#255 = AXIS2_PLACEMENT_3D ( 'NONE', #200, #133, #230 ) ;
#256 = CC_DESIGN_PERSON_AND_ORGANIZATION_ASSIGNMENT ( #167, #142, ( #208 ) ) ;
#257 = CARTESIAN_POINT ( 'NONE',  ( 0.000000000000000000, 0.000000000000000000, 103.0000000000000142 ) ) ;
#258 = DIRECTION ( 'NONE',  ( -0.000000000000000000, -0.000000000000000000, -1.000000000000000000 ) ) ;
#259 = FACE_OUTER_BOUND ( 'NONE', #126, .T. ) ;
#260 = LOCAL_TIME ( 12, 14, 12.00000000000000000, #141 ) ;
#261 = CC_DESIGN_PERSON_AND_ORGANIZATION_ASSIGNMENT ( #7, #269, ( #301 ) ) ;
#262 = CARTESIAN_POINT ( 'NONE',  ( -1.800000000000000266, 2.204364238465236069E-16, 3.199999999999994404 ) ) ;
#263 = DATE_AND_TIME ( #166, #199 ) ;
#264 = DIRECTION ( 'NONE',  ( 1.000000000000000000, 0.000000000000000000, 0.000000000000000000 ) ) ;
#265 = ORIENTED_EDGE ( 'NONE', *, *, #182, .F. ) ;
#266 = LOCAL_TIME ( 12, 14, 12.00000000000000000, #144 ) ;
#267 = DATE_AND_TIME ( #86, #14 ) ;
#268 = DIRECTION ( 'NONE',  ( -0.000000000000000000, -0.000000000000000000, -1.000000000000000000 ) ) ;
#269 = PERSON_AND_ORGANIZATION_ROLE ( 'classification_officer' ) ;
#270 = CARTESIAN_POINT ( 'NONE',  ( 0.000000000000000000, 0.000000000000000000, 3.000000000000000000 ) ) ;
#271 = EDGE_CURVE ( 'NONE', #85, #195, #67, .T. ) ;
#272 = PRODUCT_DEFINITION_SHAPE ( 'NONE', 'NONE',  #205 ) ;
#273 = DIRECTION ( 'NONE',  ( -0.000000000000000000, -0.000000000000000000, -1.000000000000000000 ) ) ;
#274 = AXIS2_PLACEMENT_3D ( 'NONE', #245, #129, #87 ) ;
#275 = ORIENTED_EDGE ( 'NONE', *, *, #157, .T. ) ;
#276 = DIRECTION ( 'NONE',  ( 0.000000000000000000, 0.000000000000000000, 1.000000000000000000 ) ) ;
#277 = FACE_OUTER_BOUND ( 'NONE', #204, .T. ) ;
#278 = AXIS2_PLACEMENT_3D ( 'NONE', #224, #42, #15 ) ;
#279 = PLANE ( 'NONE',  #197 ) ;
#280 = DIRECTION ( 'NONE',  ( -0.000000000000000000, -0.000000000000000000, -1.000000000000000000 ) ) ;
#281 = APPROVAL_DATE_TIME ( #263, #242 ) ;
#282 = CARTESIAN_POINT ( 'NONE',  ( 0.000000000000000000, 0.000000000000000000, 3.000000000000000000 ) ) ;
#283 = APPROVAL ( #127, 'NEURÈENÝ' ) ;
#284 = UNCERTAINTY_MEASURE_WITH_UNIT (LENGTH_MEASURE( 1.000000000000000082E-05 ), #139, 'distance_accuracy_value', 'NONE');
#285 = AXIS2_PLACEMENT_3D ( 'NONE', #262, #188, #99 ) ;
#286 = COORDINATED_UNIVERSAL_TIME_OFFSET ( 1, 0, .AHEAD. ) ;
#287 = CC_DESIGN_DATE_AND_TIME_ASSIGNMENT ( #136, #234, ( #205 ) ) ;
#288 = AXIS2_PLACEMENT_3D ( 'NONE', #106, #248, #154 ) ;
#289 = CIRCLE ( 'NONE', #153, 1.600000000000000089 ) ;
#290 = CC_DESIGN_APPROVAL ( #283, ( #301 ) ) ;
#291 = SHAPE_DEFINITION_REPRESENTATION ( #272, #91 ) ;
#292 = VERTEX_POINT ( 'NONE', #140 ) ;
#293 = EDGE_LOOP ( 'NONE', ( #53, #89 ) ) ;
#294 = EDGE_CURVE ( 'NONE', #241, #296, #228, .T. ) ;
#295 = ORIENTED_EDGE ( 'NONE', *, *, #182, .T. ) ;
#296 = VERTEX_POINT ( 'NONE', #214 ) ;
#297 = EDGE_CURVE ( 'NONE', #22, #39, #244, .T. ) ;
#298 = EDGE_LOOP ( 'NONE', ( #92, #90 ) ) ;
#299 = CARTESIAN_POINT ( 'NONE',  ( 0.000000000000000000, 0.000000000000000000, 103.0000000000000142 ) ) ;
#300 = CC_DESIGN_APPROVAL ( #242, ( #205 ) ) ;
#301 = SECURITY_CLASSIFICATION ( '', '', #174 ) ;
#302 = CARTESIAN_POINT ( 'NONE',  ( 0.000000000000000000, 0.000000000000000000, 0.000000000000000000 ) ) ;
#303 = DIRECTION ( 'NONE',  ( -1.000000000000000000, 0.000000000000000000, 0.000000000000000000 ) ) ;
#304 = VERTEX_POINT ( 'NONE', #52 ) ;
#305 = DIRECTION ( 'NONE',  ( -1.000000000000000000, 0.000000000000000000, 0.000000000000000000 ) ) ;
#306 = CIRCLE ( 'NONE', #255, 1.600000000000000089 ) ;
#307 = DIRECTION ( 'NONE',  ( 1.000000000000000000, 0.000000000000000000, -0.000000000000000000 ) ) ;
ENDSEC;
END-ISO-10303-21;
