ISO-10303-21;
HEADER;
FILE_DESCRIPTION (( 'STEP AP203' ),
    '1' );
FILE_NAME ('3f79.STEP',
    '2022-06-20T09:55:43',
    ( '' ),
    ( '' ),
    'SwSTEP 2.0',
    'SolidWorks 2019',
    '' );
FILE_SCHEMA (( 'CONFIG_CONTROL_DESIGN' ));
ENDSEC;

DATA;
#1 = CARTESIAN_POINT ( 'NONE',  ( 0.000000000000000000, 0.000000000000000000, 5.000000000000000000 ) ) ;
#2 = ADVANCED_FACE ( 'NONE', ( #262 ), #104, .F. ) ;
#3 = EDGE_CURVE ( 'NONE', #306, #261, #36, .T. ) ;
#4 = DATE_AND_TIME ( #245, #177 ) ;
#5 = DIRECTION ( 'NONE',  ( 1.000000000000000000, 0.000000000000000000, 0.000000000000000000 ) ) ;
#6 = LOCAL_TIME ( 11, 55, 43.00000000000000000, #73 ) ;
#7 = CARTESIAN_POINT ( 'NONE',  ( 6.000000000000000888, 7.347880794884120722E-16, 5.000000000000000000 ) ) ;
#8 = EDGE_CURVE ( 'NONE', #142, #235, #51, .T. ) ;
#9 = APPROVAL_PERSON_ORGANIZATION ( #197, #229, #195 ) ;
#10 = ORIENTED_EDGE ( 'NONE', *, *, #8, .T. ) ;
#11 = APPLICATION_PROTOCOL_DEFINITION ( 'international standard', 'config_control_design', 1994, #113 ) ;
#12 = ORIENTED_EDGE ( 'NONE', *, *, #3, .F. ) ;
#13 = DIRECTION ( 'NONE',  ( 0.000000000000000000, 0.000000000000000000, 1.000000000000000000 ) ) ;
#14 = FACE_OUTER_BOUND ( 'NONE', #96, .T. ) ;
#15 = ORIENTED_EDGE ( 'NONE', *, *, #160, .F. ) ;
#16 =( GEOMETRIC_REPRESENTATION_CONTEXT ( 3 ) GLOBAL_UNCERTAINTY_ASSIGNED_CONTEXT ( ( #119 ) ) GLOBAL_UNIT_ASSIGNED_CONTEXT ( ( #69, #184, #163 ) ) REPRESENTATION_CONTEXT ( 'NONE', 'WORKASPACE' ) );
#17 = ORIENTED_EDGE ( 'NONE', *, *, #74, .T. ) ;
#18 = CC_DESIGN_PERSON_AND_ORGANIZATION_ASSIGNMENT ( #40, #243, ( #156 ) ) ;
#19 = DATE_TIME_ROLE ( 'classification_date' ) ;
#20 = AXIS2_PLACEMENT_3D ( 'NONE', #251, #135, #249 ) ;
#21 = PERSON_AND_ORGANIZATION ( #132, #226 ) ;
#22 = CC_DESIGN_PERSON_AND_ORGANIZATION_ASSIGNMENT ( #257, #174, ( #277 ) ) ;
#23 = APPROVAL ( #63, 'NEURÈENÝ' ) ;
#24 = LINE ( 'NONE', #228, #207 ) ;
#25 = EDGE_LOOP ( 'NONE', ( #188, #217 ) ) ;
#26 = DIRECTION ( 'NONE',  ( 0.000000000000000000, 0.000000000000000000, 1.000000000000000000 ) ) ;
#27 = EDGE_CURVE ( 'NONE', #306, #244, #24, .T. ) ;
#28 = LOCAL_TIME ( 11, 55, 43.00000000000000000, #213 ) ;
#29 = ORIENTED_EDGE ( 'NONE', *, *, #116, .F. ) ;
#30 = AXIS2_PLACEMENT_3D ( 'NONE', #48, #224, #220 ) ;
#31 = CARTESIAN_POINT ( 'NONE',  ( 0.000000000000000000, 0.000000000000000000, 0.000000000000000000 ) ) ;
#32 = CARTESIAN_POINT ( 'NONE',  ( -6.000000000000000888, 0.000000000000000000, 0.000000000000000000 ) ) ;
#33 = APPROVAL_ROLE ( '' ) ;
#34 = DIRECTION ( 'NONE',  ( -0.000000000000000000, -0.000000000000000000, -1.000000000000000000 ) ) ;
#35 = CARTESIAN_POINT ( 'NONE',  ( 3.100000000000000089, 3.796405077356794918E-16, 5.199999999999982414 ) ) ;
#36 = CIRCLE ( 'NONE', #273, 3.100000000000000089 ) ;
#37 = DIRECTION ( 'NONE',  ( 1.000000000000000000, 0.000000000000000000, -0.000000000000000000 ) ) ;
#38 = ORIENTED_EDGE ( 'NONE', *, *, #81, .F. ) ;
#39 = AXIS2_PLACEMENT_3D ( 'NONE', #270, #50, #157 ) ;
#40 = PERSON_AND_ORGANIZATION ( #132, #226 ) ;
#41 = CARTESIAN_POINT ( 'NONE',  ( -3.299999999999999822, 4.041334437186265510E-16, 4.999999999999991118 ) ) ;
#42 = PERSON_AND_ORGANIZATION ( #132, #226 ) ;
#43 = EDGE_CURVE ( 'NONE', #253, #244, #294, .T. ) ;
#44 = EDGE_LOOP ( 'NONE', ( #68, #302, #172, #72 ) ) ;
#45 = COORDINATED_UNIVERSAL_TIME_OFFSET ( 1, 0, .AHEAD. ) ;
#46 = VECTOR ( 'NONE', #34, 1000.000000000000000 ) ;
#47 = AXIS2_PLACEMENT_3D ( 'NONE', #254, #281, #95 ) ;
#48 = CARTESIAN_POINT ( 'NONE',  ( 0.000000000000000000, 0.000000000000000000, 5.000000000000000000 ) ) ;
#49 = CALENDAR_DATE ( 2022, 20, 6 ) ;
#50 = DIRECTION ( 'NONE',  ( -0.000000000000000000, -0.000000000000000000, -1.000000000000000000 ) ) ;
#51 = CIRCLE ( 'NONE', #30, 6.000000000000000888 ) ;
#52 = COORDINATED_UNIVERSAL_TIME_OFFSET ( 1, 0, .AHEAD. ) ;
#53 = PRODUCT_RELATED_PRODUCT_CATEGORY ( 'detail', '', ( #156 ) ) ;
#54 = DIRECTION ( 'NONE',  ( 0.000000000000000000, 0.000000000000000000, 1.000000000000000000 ) ) ;
#55 = EDGE_CURVE ( 'NONE', #287, #62, #260, .T. ) ;
#56 = FACE_OUTER_BOUND ( 'NONE', #150, .T. ) ;
#57 = CYLINDRICAL_SURFACE ( 'NONE', #58, 6.000000000000000888 ) ;
#58 = AXIS2_PLACEMENT_3D ( 'NONE', #122, #117, #214 ) ;
#59 = DIRECTION ( 'NONE',  ( 1.000000000000000000, 0.000000000000000000, -0.000000000000000000 ) ) ;
#60 = DIRECTION ( 'NONE',  ( 0.000000000000000000, 0.000000000000000000, 1.000000000000000000 ) ) ;
#61 = AXIS2_PLACEMENT_3D ( 'NONE', #109, #26, #112 ) ;
#62 = VERTEX_POINT ( 'NONE', #41 ) ;
#63 = APPROVAL_STATUS ( 'not_yet_approved' ) ;
#64 = DIRECTION ( 'NONE',  ( 0.000000000000000000, 0.000000000000000000, 1.000000000000000000 ) ) ;
#65 = CALENDAR_DATE ( 2022, 20, 6 ) ;
#66 = CIRCLE ( 'NONE', #108, 6.000000000000000888 ) ;
#67 = PLANE ( 'NONE',  #242 ) ;
#68 = ORIENTED_EDGE ( 'NONE', *, *, #8, .F. ) ;
#69 =( LENGTH_UNIT ( ) NAMED_UNIT ( * ) SI_UNIT ( .MILLI., .METRE. ) );
#70 = AXIS2_PLACEMENT_3D ( 'NONE', #1, #194, #291 ) ;
#71 = ORIENTED_EDGE ( 'NONE', *, *, #134, .F. ) ;
#72 = ORIENTED_EDGE ( 'NONE', *, *, #137, .F. ) ;
#73 = COORDINATED_UNIVERSAL_TIME_OFFSET ( 1, 0, .AHEAD. ) ;
#74 = EDGE_CURVE ( 'NONE', #261, #253, #99, .T. ) ;
#75 = DIRECTION ( 'NONE',  ( -0.000000000000000000, -0.000000000000000000, -1.000000000000000000 ) ) ;
#76 = ORIENTED_EDGE ( 'NONE', *, *, #258, .F. ) ;
#77 = AXIS2_PLACEMENT_3D ( 'NONE', #180, #54, #87 ) ;
#78 = PERSON_AND_ORGANIZATION_ROLE ( 'classification_officer' ) ;
#79 = EDGE_CURVE ( 'NONE', #253, #62, #221, .T. ) ;
#80 = DIRECTION ( 'NONE',  ( -0.000000000000000000, -0.000000000000000000, -1.000000000000000000 ) ) ;
#81 = EDGE_CURVE ( 'NONE', #261, #306, #203, .T. ) ;
#82 = AXIS2_PLACEMENT_3D ( 'NONE', #130, #264, #5 ) ;
#83 = CARTESIAN_POINT ( 'NONE',  ( 0.000000000000000000, 0.000000000000000000, 405.0000000000000000 ) ) ;
#84 = ORIENTED_EDGE ( 'NONE', *, *, #27, .T. ) ;
#85 = APPLICATION_PROTOCOL_DEFINITION ( 'international standard', 'config_control_design', 1994, #152 ) ;
#86 = AXIS2_PLACEMENT_3D ( 'NONE', #173, #60, #147 ) ;
#87 = DIRECTION ( 'NONE',  ( 1.000000000000000000, 0.000000000000000000, 0.000000000000000000 ) ) ;
#88 = ORIENTED_EDGE ( 'NONE', *, *, #206, .T. ) ;
#89 = FACE_BOUND ( 'NONE', #25, .T. ) ;
#90 = ORIENTED_EDGE ( 'NONE', *, *, #43, .F. ) ;
#91 = ADVANCED_FACE ( 'NONE', ( #56 ), #178, .T. ) ;
#92 = CARTESIAN_POINT ( 'NONE',  ( 0.000000000000000000, 0.000000000000000000, 5.199999999999982414 ) ) ;
#93 = CIRCLE ( 'NONE', #86, 6.000000000000000888 ) ;
#94 = DIRECTION ( 'NONE',  ( 1.000000000000000000, 0.000000000000000000, -0.000000000000000000 ) ) ;
#95 = DIRECTION ( 'NONE',  ( -1.000000000000000000, 0.000000000000000000, 0.000000000000000000 ) ) ;
#96 = EDGE_LOOP ( 'NONE', ( #123, #140 ) ) ;
#97 = CALENDAR_DATE ( 2022, 20, 6 ) ;
#98 = CC_DESIGN_PERSON_AND_ORGANIZATION_ASSIGNMENT ( #154, #103, ( #219 ) ) ;
#99 = LINE ( 'NONE', #196, #290 ) ;
#100 = APPROVAL_ROLE ( '' ) ;
#101 = APPROVAL_PERSON_ORGANIZATION ( #21, #205, #100 ) ;
#102 = ORIENTED_EDGE ( 'NONE', *, *, #258, .T. ) ;
#103 = PERSON_AND_ORGANIZATION_ROLE ( 'design_supplier' ) ;
#104 = TOROIDAL_SURFACE ( 'NONE', #227, 3.299999999999999822, 0.2000000000000000111 ) ;
#105 = CARTESIAN_POINT ( 'NONE',  ( 0.000000000000000000, 0.000000000000000000, 405.0000000000000000 ) ) ;
#106 = DATE_AND_TIME ( #49, #293 ) ;
#107 = AXIS2_PLACEMENT_3D ( 'NONE', #208, #296, #182 ) ;
#108 = AXIS2_PLACEMENT_3D ( 'NONE', #115, #13, #211 ) ;
#109 = CARTESIAN_POINT ( 'NONE',  ( 0.000000000000000000, 0.000000000000000000, 405.0000000000000000 ) ) ;
#110 = CIRCLE ( 'NONE', #77, 3.100000000000000089 ) ;
#111 = CC_DESIGN_DATE_AND_TIME_ASSIGNMENT ( #106, #19, ( #202 ) ) ;
#112 = DIRECTION ( 'NONE',  ( 1.000000000000000000, 0.000000000000000000, 0.000000000000000000 ) ) ;
#113 = APPLICATION_CONTEXT ( 'configuration controlled 3d designs of mechanical parts and assemblies' ) ;
#114 = CC_DESIGN_APPROVAL ( #23, ( #277 ) ) ;
#115 = CARTESIAN_POINT ( 'NONE',  ( 0.000000000000000000, 0.000000000000000000, 0.000000000000000000 ) ) ;
#116 = EDGE_CURVE ( 'NONE', #244, #253, #110, .T. ) ;
#117 = DIRECTION ( 'NONE',  ( -0.000000000000000000, -0.000000000000000000, -1.000000000000000000 ) ) ;
#118 = DIRECTION ( 'NONE',  ( 1.000000000000000000, 0.000000000000000000, 0.000000000000000000 ) ) ;
#119 = UNCERTAINTY_MEASURE_WITH_UNIT (LENGTH_MEASURE( 1.000000000000000082E-05 ), #69, 'distance_accuracy_value', 'NONE');
#120 = ORIENTED_EDGE ( 'NONE', *, *, #137, .T. ) ;
#121 = DIRECTION ( 'NONE',  ( 0.000000000000000000, -1.000000000000000000, 0.000000000000000000 ) ) ;
#122 = CARTESIAN_POINT ( 'NONE',  ( 0.000000000000000000, 0.000000000000000000, 5.000000000000000000 ) ) ;
#123 = ORIENTED_EDGE ( 'NONE', *, *, #81, .T. ) ;
#124 = DIRECTION ( 'NONE',  ( 1.000000000000000000, 0.000000000000000000, 0.000000000000000000 ) ) ;
#125 = FACE_OUTER_BOUND ( 'NONE', #162, .T. ) ;
#126 = ORIENTED_EDGE ( 'NONE', *, *, #116, .T. ) ;
#127 = VECTOR ( 'NONE', #241, 1000.000000000000000 ) ;
#128 = CARTESIAN_POINT ( 'NONE',  ( 0.000000000000000000, 0.000000000000000000, 5.199999999999982414 ) ) ;
#129 = CC_DESIGN_SECURITY_CLASSIFICATION ( #202, ( #219 ) ) ;
#130 = CARTESIAN_POINT ( 'NONE',  ( 0.000000000000000000, 0.000000000000000000, 5.199999999999982414 ) ) ;
#131 = ORIENTED_EDGE ( 'NONE', *, *, #74, .F. ) ;
#132 = PERSON ( 'NEURÈENÝ', 'NEURÈENÝ', 'NEURÈENÝ', ('NEURÈENÝ'), ('NEURÈENÝ'), ('NEURÈENÝ') ) ;
#133 = PRODUCT_DEFINITION_SHAPE ( 'NONE', 'NONE',  #277 ) ;
#134 = EDGE_CURVE ( 'NONE', #164, #138, #292, .T. ) ;
#135 = DIRECTION ( 'NONE',  ( 1.224646799147353207E-16, 1.000000000000000000, -0.000000000000000000 ) ) ;
#136 = CC_DESIGN_APPROVAL ( #229, ( #202 ) ) ;
#137 = EDGE_CURVE ( 'NONE', #235, #138, #144, .T. ) ;
#138 = VERTEX_POINT ( 'NONE', #32 ) ;
#139 = CARTESIAN_POINT ( 'NONE',  ( 6.000000000000000888, 7.347880794884120722E-16, 0.000000000000000000 ) ) ;
#140 = ORIENTED_EDGE ( 'NONE', *, *, #3, .T. ) ;
#141 = DIRECTION ( 'NONE',  ( 0.000000000000000000, 0.000000000000000000, 1.000000000000000000 ) ) ;
#142 = VERTEX_POINT ( 'NONE', #7 ) ;
#143 = DIRECTION ( 'NONE',  ( -1.000000000000000000, 0.000000000000000000, 0.000000000000000000 ) ) ;
#144 = LINE ( 'NONE', #279, #127 ) ;
#145 = ORIENTED_EDGE ( 'NONE', *, *, #206, .F. ) ;
#146 = DATE_AND_TIME ( #65, #28 ) ;
#147 = DIRECTION ( 'NONE',  ( 1.000000000000000000, 0.000000000000000000, 0.000000000000000000 ) ) ;
#148 = DIRECTION ( 'NONE',  ( 0.000000000000000000, 0.000000000000000000, 1.000000000000000000 ) ) ;
#149 = CARTESIAN_POINT ( 'NONE',  ( 0.000000000000000000, 0.000000000000000000, 5.000000000000000000 ) ) ;
#150 = EDGE_LOOP ( 'NONE', ( #210, #38, #17, #299 ) ) ;
#151 = ORIENTED_EDGE ( 'NONE', *, *, #79, .T. ) ;
#152 = APPLICATION_CONTEXT ( 'configuration controlled 3d designs of mechanical parts and assemblies' ) ;
#153 = PERSON_AND_ORGANIZATION_ROLE ( 'creator' ) ;
#154 = PERSON_AND_ORGANIZATION ( #132, #226 ) ;
#155 = ADVANCED_FACE ( 'NONE', ( #14 ), #282, .T. ) ;
#156 = PRODUCT ( '3f79', '3f79', '', ( #237 ) ) ;
#157 = DIRECTION ( 'NONE',  ( -1.000000000000000000, 0.000000000000000000, 0.000000000000000000 ) ) ;
#158 = COORDINATED_UNIVERSAL_TIME_OFFSET ( 1, 0, .AHEAD. ) ;
#159 = CIRCLE ( 'NONE', #272, 0.1999999999999996503 ) ;
#160 = EDGE_CURVE ( 'NONE', #142, #164, #166, .T. ) ;
#161 = FACE_OUTER_BOUND ( 'NONE', #280, .T. ) ;
#162 = EDGE_LOOP ( 'NONE', ( #297, #71 ) ) ;
#163 =( NAMED_UNIT ( * ) SI_UNIT ( $, .STERADIAN. ) SOLID_ANGLE_UNIT ( ) );
#164 = VERTEX_POINT ( 'NONE', #139 ) ;
#165 = DIRECTION ( 'NONE',  ( 0.000000000000000000, 0.000000000000000000, -1.000000000000000000 ) ) ;
#166 = LINE ( 'NONE', #255, #46 ) ;
#167 = ORIENTED_EDGE ( 'NONE', *, *, #223, .T. ) ;
#168 = APPROVAL_DATE_TIME ( #146, #23 ) ;
#169 = CARTESIAN_POINT ( 'NONE',  ( 0.000000000000000000, 0.000000000000000000, 5.000000000000000000 ) ) ;
#170 = ORIENTED_EDGE ( 'NONE', *, *, #79, .F. ) ;
#171 = CARTESIAN_POINT ( 'NONE',  ( -3.100000000000000089, 0.000000000000000000, 405.0000000000000000 ) ) ;
#172 = ORIENTED_EDGE ( 'NONE', *, *, #134, .T. ) ;
#173 = CARTESIAN_POINT ( 'NONE',  ( 0.000000000000000000, 0.000000000000000000, 5.000000000000000000 ) ) ;
#174 = PERSON_AND_ORGANIZATION_ROLE ( 'creator' ) ;
#175 = ADVANCED_FACE ( 'NONE', ( #161 ), #57, .T. ) ;
#176 = DIRECTION ( 'NONE',  ( 1.000000000000000000, 0.000000000000000000, 0.000000000000000000 ) ) ;
#177 = LOCAL_TIME ( 11, 55, 43.00000000000000000, #45 ) ;
#178 = CYLINDRICAL_SURFACE ( 'NONE', #39, 3.100000000000000089 ) ;
#179 = APPROVAL_DATE_TIME ( #4, #229 ) ;
#180 = CARTESIAN_POINT ( 'NONE',  ( 0.000000000000000000, 0.000000000000000000, 5.199999999999982414 ) ) ;
#181 = CC_DESIGN_PERSON_AND_ORGANIZATION_ASSIGNMENT ( #271, #153, ( #219 ) ) ;
#182 = DIRECTION ( 'NONE',  ( 1.000000000000000000, 0.000000000000000000, 0.000000000000000000 ) ) ;
#183 = EDGE_LOOP ( 'NONE', ( #90, #151, #256, #145 ) ) ;
#184 =( NAMED_UNIT ( * ) PLANE_ANGLE_UNIT ( ) SI_UNIT ( $, .RADIAN. ) );
#185 = ADVANCED_FACE ( 'NONE', ( #89, #286 ), #67, .T. ) ;
#186 = PERSON_AND_ORGANIZATION ( #132, #226 ) ;
#187 = DIRECTION ( 'NONE',  ( 1.000000000000000000, 0.000000000000000000, 0.000000000000000000 ) ) ;
#188 = ORIENTED_EDGE ( 'NONE', *, *, #55, .T. ) ;
#189 = AXIS2_PLACEMENT_3D ( 'NONE', #92, #301, #124 ) ;
#190 = FACE_OUTER_BOUND ( 'NONE', #238, .T. ) ;
#191 = CARTESIAN_POINT ( 'NONE',  ( 3.299999999999999822, 0.000000000000000000, 5.199999999999982414 ) ) ;
#192 = CARTESIAN_POINT ( 'NONE',  ( 3.100000000000000089, 3.796405077356794918E-16, 405.0000000000000000 ) ) ;
#193 = EDGE_CURVE ( 'NONE', #62, #287, #234, .T. ) ;
#194 = DIRECTION ( 'NONE',  ( -0.000000000000000000, -0.000000000000000000, -1.000000000000000000 ) ) ;
#195 = APPROVAL_ROLE ( '' ) ;
#196 = CARTESIAN_POINT ( 'NONE',  ( -3.100000000000000089, 0.000000000000000000, 405.0000000000000000 ) ) ;
#197 = PERSON_AND_ORGANIZATION ( #132, #226 ) ;
#198 = ADVANCED_FACE ( 'NONE', ( #125 ), #216, .F. ) ;
#199 = APPROVAL_DATE_TIME ( #265, #205 ) ;
#200 = APPROVAL_STATUS ( 'not_yet_approved' ) ;
#201 = AXIS2_PLACEMENT_3D ( 'NONE', #275, #209, #187 ) ;
#202 = SECURITY_CLASSIFICATION ( '', '', #247 ) ;
#203 = CIRCLE ( 'NONE', #61, 3.100000000000000089 ) ;
#204 = AXIS2_PLACEMENT_3D ( 'NONE', #83, #64, #59 ) ;
#205 = APPROVAL ( #200, 'NEURÈENÝ' ) ;
#206 = EDGE_CURVE ( 'NONE', #244, #287, #159, .T. ) ;
#207 = VECTOR ( 'NONE', #75, 1000.000000000000000 ) ;
#208 = CARTESIAN_POINT ( 'NONE',  ( 0.000000000000000000, 0.000000000000000000, 5.000000000000000000 ) ) ;
#209 = DIRECTION ( 'NONE',  ( 0.000000000000000000, 0.000000000000000000, 1.000000000000000000 ) ) ;
#210 = ORIENTED_EDGE ( 'NONE', *, *, #27, .F. ) ;
#211 = DIRECTION ( 'NONE',  ( 1.000000000000000000, 0.000000000000000000, 0.000000000000000000 ) ) ;
#212 = CYLINDRICAL_SURFACE ( 'NONE', #47, 3.100000000000000089 ) ;
#213 = COORDINATED_UNIVERSAL_TIME_OFFSET ( 1, 0, .AHEAD. ) ;
#214 = DIRECTION ( 'NONE',  ( -1.000000000000000000, 0.000000000000000000, 0.000000000000000000 ) ) ;
#215 = FACE_OUTER_BOUND ( 'NONE', #252, .T. ) ;
#216 = PLANE ( 'NONE',  #276 ) ;
#217 = ORIENTED_EDGE ( 'NONE', *, *, #193, .T. ) ;
#218 = ADVANCED_FACE ( 'NONE', ( #278 ), #233, .T. ) ;
#219 = PRODUCT_DEFINITION_FORMATION_WITH_SPECIFIED_SOURCE ( 'LIBOVOLNÝ', '', #156, .NOT_KNOWN. ) ;
#220 = DIRECTION ( 'NONE',  ( 1.000000000000000000, 0.000000000000000000, 0.000000000000000000 ) ) ;
#221 = CIRCLE ( 'NONE', #20, 0.2000000000000000944 ) ;
#222 = DATE_AND_TIME ( #97, #269 ) ;
#223 = EDGE_CURVE ( 'NONE', #138, #164, #66, .T. ) ;
#224 = DIRECTION ( 'NONE',  ( 0.000000000000000000, 0.000000000000000000, 1.000000000000000000 ) ) ;
#225 = APPROVAL_STATUS ( 'not_yet_approved' ) ;
#226 = ORGANIZATION ( 'NEURÈENÝ', 'NEURÈENÝ', '' ) ;
#227 = AXIS2_PLACEMENT_3D ( 'NONE', #128, #148, #176 ) ;
#228 = CARTESIAN_POINT ( 'NONE',  ( 3.100000000000000089, 3.796405077356794918E-16, 405.0000000000000000 ) ) ;
#229 = APPROVAL ( #225, 'NEURÈENÝ' ) ;
#230 = CC_DESIGN_APPROVAL ( #205, ( #219 ) ) ;
#231 = CC_DESIGN_DATE_AND_TIME_ASSIGNMENT ( #222, #268, ( #277 ) ) ;
#232 = ORIENTED_EDGE ( 'NONE', *, *, #193, .F. ) ;
#233 = CYLINDRICAL_SURFACE ( 'NONE', #295, 6.000000000000000888 ) ;
#234 = CIRCLE ( 'NONE', #107, 3.299999999999999822 ) ;
#235 = VERTEX_POINT ( 'NONE', #285 ) ;
#236 = MANIFOLD_SOLID_BREP ( 'Zaoblit1', #239 ) ;
#237 = MECHANICAL_CONTEXT ( 'NONE', #152, 'mechanical' ) ;
#238 = EDGE_LOOP ( 'NONE', ( #12, #84, #126, #131 ) ) ;
#239 = CLOSED_SHELL ( 'NONE', ( #2, #284, #218, #175, #185, #198, #91, #155, #250 ) ) ;
#240 = DIRECTION ( 'NONE',  ( -0.000000000000000000, -0.000000000000000000, -1.000000000000000000 ) ) ;
#241 = DIRECTION ( 'NONE',  ( -0.000000000000000000, -0.000000000000000000, -1.000000000000000000 ) ) ;
#242 = AXIS2_PLACEMENT_3D ( 'NONE', #169, #259, #37 ) ;
#243 = PERSON_AND_ORGANIZATION_ROLE ( 'design_owner' ) ;
#244 = VERTEX_POINT ( 'NONE', #35 ) ;
#245 = CALENDAR_DATE ( 2022, 20, 6 ) ;
#246 = DIRECTION ( 'NONE',  ( 0.000000000000000000, 0.000000000000000000, 1.000000000000000000 ) ) ;
#247 = SECURITY_CLASSIFICATION_LEVEL ( 'unclassified' ) ;
#248 = APPROVAL_PERSON_ORGANIZATION ( #186, #23, #33 ) ;
#249 = DIRECTION ( 'NONE',  ( -1.000000000000000000, 1.224646799147353207E-16, 0.000000000000000000 ) ) ;
#250 = ADVANCED_FACE ( 'NONE', ( #215 ), #305, .F. ) ;
#251 = CARTESIAN_POINT ( 'NONE',  ( -3.299999999999999822, 4.041334437186265510E-16, 5.199999999999982414 ) ) ;
#252 = EDGE_LOOP ( 'NONE', ( #170, #29, #88, #232 ) ) ;
#253 = VERTEX_POINT ( 'NONE', #303 ) ;
#254 = CARTESIAN_POINT ( 'NONE',  ( 0.000000000000000000, 0.000000000000000000, 405.0000000000000000 ) ) ;
#255 = CARTESIAN_POINT ( 'NONE',  ( 6.000000000000000888, 7.347880794884120722E-16, 5.000000000000000000 ) ) ;
#256 = ORIENTED_EDGE ( 'NONE', *, *, #55, .F. ) ;
#257 = PERSON_AND_ORGANIZATION ( #132, #226 ) ;
#258 = EDGE_CURVE ( 'NONE', #235, #142, #93, .T. ) ;
#259 = DIRECTION ( 'NONE',  ( 0.000000000000000000, 0.000000000000000000, 1.000000000000000000 ) ) ;
#260 = CIRCLE ( 'NONE', #70, 3.299999999999999822 ) ;
#261 = VERTEX_POINT ( 'NONE', #171 ) ;
#262 = FACE_OUTER_BOUND ( 'NONE', #183, .T. ) ;
#263 = CALENDAR_DATE ( 2022, 20, 6 ) ;
#264 = DIRECTION ( 'NONE',  ( 0.000000000000000000, 0.000000000000000000, 1.000000000000000000 ) ) ;
#265 = DATE_AND_TIME ( #263, #6 ) ;
#266 = SHAPE_DEFINITION_REPRESENTATION ( #133, #307 ) ;
#267 = DIRECTION ( 'NONE',  ( 1.000000000000000000, 0.000000000000000000, 0.000000000000000000 ) ) ;
#268 = DATE_TIME_ROLE ( 'creation_date' ) ;
#269 = LOCAL_TIME ( 11, 55, 43.00000000000000000, #158 ) ;
#270 = CARTESIAN_POINT ( 'NONE',  ( 0.000000000000000000, 0.000000000000000000, 405.0000000000000000 ) ) ;
#271 = PERSON_AND_ORGANIZATION ( #132, #226 ) ;
#272 = AXIS2_PLACEMENT_3D ( 'NONE', #191, #121, #165 ) ;
#273 = AXIS2_PLACEMENT_3D ( 'NONE', #105, #246, #267 ) ;
#274 = DESIGN_CONTEXT ( 'detailed design', #113, 'design' ) ;
#275 = CARTESIAN_POINT ( 'NONE',  ( 0.000000000000000000, 0.000000000000000000, 0.000000000000000000 ) ) ;
#276 = AXIS2_PLACEMENT_3D ( 'NONE', #289, #304, #94 ) ;
#277 = PRODUCT_DEFINITION ( 'NEZNÁMÝ', '', #219, #274 ) ;
#278 = FACE_OUTER_BOUND ( 'NONE', #44, .T. ) ;
#279 = CARTESIAN_POINT ( 'NONE',  ( -6.000000000000000888, 0.000000000000000000, 5.000000000000000000 ) ) ;
#280 = EDGE_LOOP ( 'NONE', ( #15, #76, #120, #167 ) ) ;
#281 = DIRECTION ( 'NONE',  ( -0.000000000000000000, -0.000000000000000000, -1.000000000000000000 ) ) ;
#282 = PLANE ( 'NONE',  #204 ) ;
#283 = CC_DESIGN_PERSON_AND_ORGANIZATION_ASSIGNMENT ( #42, #78, ( #202 ) ) ;
#284 = ADVANCED_FACE ( 'NONE', ( #190 ), #212, .T. ) ;
#285 = CARTESIAN_POINT ( 'NONE',  ( -6.000000000000000888, 0.000000000000000000, 5.000000000000000000 ) ) ;
#286 = FACE_OUTER_BOUND ( 'NONE', #300, .T. ) ;
#287 = VERTEX_POINT ( 'NONE', #288 ) ;
#288 = CARTESIAN_POINT ( 'NONE',  ( 3.299999999999999822, 0.000000000000000000, 4.999999999999991118 ) ) ;
#289 = CARTESIAN_POINT ( 'NONE',  ( 0.000000000000000000, 0.000000000000000000, 0.000000000000000000 ) ) ;
#290 = VECTOR ( 'NONE', #80, 1000.000000000000000 ) ;
#291 = DIRECTION ( 'NONE',  ( 1.000000000000000000, 0.000000000000000000, 0.000000000000000000 ) ) ;
#292 = CIRCLE ( 'NONE', #201, 6.000000000000000888 ) ;
#293 = LOCAL_TIME ( 11, 55, 43.00000000000000000, #52 ) ;
#294 = CIRCLE ( 'NONE', #82, 3.100000000000000089 ) ;
#295 = AXIS2_PLACEMENT_3D ( 'NONE', #149, #240, #143 ) ;
#296 = DIRECTION ( 'NONE',  ( -0.000000000000000000, -0.000000000000000000, -1.000000000000000000 ) ) ;
#297 = ORIENTED_EDGE ( 'NONE', *, *, #223, .F. ) ;
#298 = AXIS2_PLACEMENT_3D ( 'NONE', #31, #141, #118 ) ;
#299 = ORIENTED_EDGE ( 'NONE', *, *, #43, .T. ) ;
#300 = EDGE_LOOP ( 'NONE', ( #102, #10 ) ) ;
#301 = DIRECTION ( 'NONE',  ( 0.000000000000000000, 0.000000000000000000, 1.000000000000000000 ) ) ;
#302 = ORIENTED_EDGE ( 'NONE', *, *, #160, .T. ) ;
#303 = CARTESIAN_POINT ( 'NONE',  ( -3.100000000000000089, 0.000000000000000000, 5.199999999999982414 ) ) ;
#304 = DIRECTION ( 'NONE',  ( 0.000000000000000000, 0.000000000000000000, 1.000000000000000000 ) ) ;
#305 = TOROIDAL_SURFACE ( 'NONE', #189, 3.299999999999999822, 0.2000000000000000111 ) ;
#306 = VERTEX_POINT ( 'NONE', #192 ) ;
#307 = ADVANCED_BREP_SHAPE_REPRESENTATION ( '3f79', ( #236, #298 ), #16 ) ;
ENDSEC;
END-ISO-10303-21;
