ISO-10303-21;
HEADER;
FILE_DESCRIPTION (( 'STEP AP203' ),
    '1' );
FILE_NAME ('68d1.STEP',
    '2022-06-20T09:16:02',
    ( '' ),
    ( '' ),
    'SwSTEP 2.0',
    'SolidWorks 2019',
    '' );
FILE_SCHEMA (( 'CONFIG_CONTROL_DESIGN' ));
ENDSEC;

DATA;
#1 = CIRCLE ( 'NONE', #76, 20.00000000000000000 ) ;
#2 = DIRECTION ( 'NONE',  ( 1.000000000000000000, 0.000000000000000000, 0.000000000000000000 ) ) ;
#3 = FACE_OUTER_BOUND ( 'NONE', #14, .T. ) ;
#4 = EDGE_CURVE ( 'NONE', #106, #198, #32, .T. ) ;
#5 = CARTESIAN_POINT ( 'NONE',  ( 0.000000000000000000, 0.000000000000000000, 510.0000000000000000 ) ) ;
#6 = AXIS2_PLACEMENT_3D ( 'NONE', #143, #238, #165 ) ;
#7 = ORIENTED_EDGE ( 'NONE', *, *, #4, .F. ) ;
#8 = APPROVAL_STATUS ( 'not_yet_approved' ) ;
#9 = ORIENTED_EDGE ( 'NONE', *, *, #244, .T. ) ;
#10 = CALENDAR_DATE ( 2022, 20, 6 ) ;
#11 = AXIS2_PLACEMENT_3D ( 'NONE', #36, #229, #94 ) ;
#12 = CALENDAR_DATE ( 2022, 20, 6 ) ;
#13 = ORIENTED_EDGE ( 'NONE', *, *, #276, .F. ) ;
#14 = EDGE_LOOP ( 'NONE', ( #256, #221 ) ) ;
#15 = CARTESIAN_POINT ( 'NONE',  ( 0.000000000000000000, 0.000000000000000000, 0.000000000000000000 ) ) ;
#16 = CARTESIAN_POINT ( 'NONE',  ( -16.19999999999999929, 1.983927814618711846E-15, 10.19999999999998685 ) ) ;
#17 = APPROVAL ( #173, 'NEURÈENÝ' ) ;
#18 = ORIENTED_EDGE ( 'NONE', *, *, #142, .F. ) ;
#19 = DIRECTION ( 'NONE',  ( 0.000000000000000000, 0.000000000000000000, 1.000000000000000000 ) ) ;
#20 = DIRECTION ( 'NONE',  ( -1.000000000000000000, 1.224646799147353947E-16, 0.000000000000000000 ) ) ;
#21 =( LENGTH_UNIT ( ) NAMED_UNIT ( * ) SI_UNIT ( .MILLI., .METRE. ) );
#22 = CARTESIAN_POINT ( 'NONE',  ( 0.000000000000000000, 0.000000000000000000, 10.00000000000000000 ) ) ;
#23 = AXIS2_PLACEMENT_3D ( 'NONE', #49, #216, #2 ) ;
#24 = PRODUCT_DEFINITION_FORMATION_WITH_SPECIFIED_SOURCE ( 'LIBOVOLNÝ', '', #99, .NOT_KNOWN. ) ;
#25 = CARTESIAN_POINT ( 'NONE',  ( 0.000000000000000000, 0.000000000000000000, 10.00000000000000000 ) ) ;
#26 = PERSON_AND_ORGANIZATION_ROLE ( 'design_supplier' ) ;
#27 = ORIENTED_EDGE ( 'NONE', *, *, #294, .T. ) ;
#28 = COORDINATED_UNIVERSAL_TIME_OFFSET ( 1, 0, .AHEAD. ) ;
#29 = VERTEX_POINT ( 'NONE', #65 ) ;
#30 = DATE_AND_TIME ( #12, #218 ) ;
#31 = EDGE_LOOP ( 'NONE', ( #7, #278, #9, #154 ) ) ;
#32 = CIRCLE ( 'NONE', #53, 0.1999999999999987899 ) ;
#33 = APPROVAL_ROLE ( '' ) ;
#34 = APPROVAL ( #107, 'NEURÈENÝ' ) ;
#35 = VERTEX_POINT ( 'NONE', #69 ) ;
#36 = CARTESIAN_POINT ( 'NONE',  ( 0.000000000000000000, 0.000000000000000000, 10.19999999999998685 ) ) ;
#37 = DIRECTION ( 'NONE',  ( 1.000000000000000000, 0.000000000000000000, 0.000000000000000000 ) ) ;
#38 = PERSON ( 'NEURÈENÝ', 'NEURÈENÝ', 'NEURÈENÝ', ('NEURÈENÝ'), ('NEURÈENÝ'), ('NEURÈENÝ') ) ;
#39 = EDGE_CURVE ( 'NONE', #202, #108, #291, .T. ) ;
#40 = DIRECTION ( 'NONE',  ( 1.000000000000000000, 0.000000000000000000, -0.000000000000000000 ) ) ;
#41 = CARTESIAN_POINT ( 'NONE',  ( -16.19999999999999929, 1.983927814618711846E-15, 9.999999999999992895 ) ) ;
#42 = ORIENTED_EDGE ( 'NONE', *, *, #74, .T. ) ;
#43 = CC_DESIGN_PERSON_AND_ORGANIZATION_ASSIGNMENT ( #130, #252, ( #99 ) ) ;
#44 = CIRCLE ( 'NONE', #87, 20.00000000000000000 ) ;
#45 = DIRECTION ( 'NONE',  ( -0.000000000000000000, -0.000000000000000000, -1.000000000000000000 ) ) ;
#46 = CARTESIAN_POINT ( 'NONE',  ( 0.000000000000000000, 0.000000000000000000, 10.19999999999998685 ) ) ;
#47 = DIRECTION ( 'NONE',  ( -1.000000000000000000, 0.000000000000000000, 0.000000000000000000 ) ) ;
#48 = CARTESIAN_POINT ( 'NONE',  ( 16.00000000000000000, 1.959434878635765131E-15, 510.0000000000000000 ) ) ;
#49 = CARTESIAN_POINT ( 'NONE',  ( 0.000000000000000000, 0.000000000000000000, 10.00000000000000000 ) ) ;
#50 = SECURITY_CLASSIFICATION_LEVEL ( 'unclassified' ) ;
#51 = SHAPE_DEFINITION_REPRESENTATION ( #186, #166 ) ;
#52 = VERTEX_POINT ( 'NONE', #179 ) ;
#53 = AXIS2_PLACEMENT_3D ( 'NONE', #16, #67, #20 ) ;
#54 = EDGE_LOOP ( 'NONE', ( #13, #134, #42, #85 ) ) ;
#55 = CALENDAR_DATE ( 2022, 20, 6 ) ;
#56 = EDGE_LOOP ( 'NONE', ( #280, #177, #79, #295 ) ) ;
#57 = ADVANCED_FACE ( 'NONE', ( #92 ), #164, .T. ) ;
#58 = ORIENTED_EDGE ( 'NONE', *, *, #88, .T. ) ;
#59 = AXIS2_PLACEMENT_3D ( 'NONE', #15, #232, #40 ) ;
#60 = APPROVAL_PERSON_ORGANIZATION ( #249, #34, #84 ) ;
#61 = PLANE ( 'NONE',  #59 ) ;
#62 = CC_DESIGN_PERSON_AND_ORGANIZATION_ASSIGNMENT ( #148, #78, ( #24 ) ) ;
#63 = LINE ( 'NONE', #284, #172 ) ;
#64 = CLOSED_SHELL ( 'NONE', ( #101, #203, #156, #267, #220, #98, #57, #261, #180 ) ) ;
#65 = CARTESIAN_POINT ( 'NONE',  ( 16.00000000000000000, 1.959434878635765131E-15, 10.19999999999998685 ) ) ;
#66 = SECURITY_CLASSIFICATION ( '', '', #50 ) ;
#67 = DIRECTION ( 'NONE',  ( 1.224646799147353207E-16, 1.000000000000000000, -0.000000000000000000 ) ) ;
#68 = EDGE_CURVE ( 'NONE', #35, #176, #1, .T. ) ;
#69 = CARTESIAN_POINT ( 'NONE',  ( 20.00000000000000000, 2.449293598294706513E-15, 0.000000000000000000 ) ) ;
#70 = AXIS2_PLACEMENT_3D ( 'NONE', #25, #75, #125 ) ;
#71 = FACE_OUTER_BOUND ( 'NONE', #131, .T. ) ;
#72 = LOCAL_TIME ( 11, 16, 2.000000000000000000, #250 ) ;
#73 = DIRECTION ( 'NONE',  ( -0.000000000000000000, -0.000000000000000000, -1.000000000000000000 ) ) ;
#74 = EDGE_CURVE ( 'NONE', #108, #106, #213, .T. ) ;
#75 = DIRECTION ( 'NONE',  ( -0.000000000000000000, -0.000000000000000000, -1.000000000000000000 ) ) ;
#76 = AXIS2_PLACEMENT_3D ( 'NONE', #182, #117, #121 ) ;
#77 = CARTESIAN_POINT ( 'NONE',  ( 16.19999999999999929, 0.000000000000000000, 10.19999999999998685 ) ) ;
#78 = PERSON_AND_ORGANIZATION_ROLE ( 'creator' ) ;
#79 = ORIENTED_EDGE ( 'NONE', *, *, #217, .F. ) ;
#80 = PERSON_AND_ORGANIZATION ( #38, #301 ) ;
#81 = ORIENTED_EDGE ( 'NONE', *, *, #68, .F. ) ;
#82 = ORIENTED_EDGE ( 'NONE', *, *, #83, .T. ) ;
#83 = EDGE_CURVE ( 'NONE', #29, #106, #129, .T. ) ;
#84 = APPROVAL_ROLE ( '' ) ;
#85 = ORIENTED_EDGE ( 'NONE', *, *, #306, .T. ) ;
#86 = ORIENTED_EDGE ( 'NONE', *, *, #74, .F. ) ;
#87 = AXIS2_PLACEMENT_3D ( 'NONE', #120, #304, #281 ) ;
#88 = EDGE_CURVE ( 'NONE', #52, #35, #185, .T. ) ;
#89 = DIRECTION ( 'NONE',  ( -1.000000000000000000, 0.000000000000000000, 0.000000000000000000 ) ) ;
#90 = CARTESIAN_POINT ( 'NONE',  ( -16.00000000000000000, 0.000000000000000000, 510.0000000000000000 ) ) ;
#91 = FACE_OUTER_BOUND ( 'NONE', #31, .T. ) ;
#92 = FACE_OUTER_BOUND ( 'NONE', #54, .T. ) ;
#93 = PRODUCT_DEFINITION ( 'NEZNÁMÝ', '', #24, #171 ) ;
#94 = DIRECTION ( 'NONE',  ( 1.000000000000000000, 0.000000000000000000, 0.000000000000000000 ) ) ;
#95 = APPLICATION_PROTOCOL_DEFINITION ( 'international standard', 'config_control_design', 1994, #211 ) ;
#96 = AXIS2_PLACEMENT_3D ( 'NONE', #137, #141, #89 ) ;
#97 = DIRECTION ( 'NONE',  ( -1.000000000000000000, 0.000000000000000000, 0.000000000000000000 ) ) ;
#98 = ADVANCED_FACE ( 'NONE', ( #119 ), #61, .F. ) ;
#99 = PRODUCT ( '68d1', '68d1', '', ( #197 ) ) ;
#100 = CYLINDRICAL_SURFACE ( 'NONE', #241, 20.00000000000000000 ) ;
#101 = ADVANCED_FACE ( 'NONE', ( #212 ), #104, .F. ) ;
#102 = DIRECTION ( 'NONE',  ( 1.000000000000000000, 0.000000000000000000, -0.000000000000000000 ) ) ;
#103 = AXIS2_PLACEMENT_3D ( 'NONE', #290, #73, #97 ) ;
#104 = TOROIDAL_SURFACE ( 'NONE', #279, 16.19999999999999929, 0.2000000000000000111 ) ;
#105 = APPROVAL_DATE_TIME ( #199, #17 ) ;
#106 = VERTEX_POINT ( 'NONE', #300 ) ;
#107 = APPROVAL_STATUS ( 'not_yet_approved' ) ;
#108 = VERTEX_POINT ( 'NONE', #90 ) ;
#109 = DATE_TIME_ROLE ( 'classification_date' ) ;
#110 = EDGE_CURVE ( 'NONE', #170, #176, #63, .T. ) ;
#111 = EDGE_LOOP ( 'NONE', ( #277, #58, #228, #223 ) ) ;
#112 = AXIS2_PLACEMENT_3D ( 'NONE', #258, #158, #37 ) ;
#113 = PERSON_AND_ORGANIZATION ( #38, #301 ) ;
#114 = EDGE_LOOP ( 'NONE', ( #18, #81 ) ) ;
#115 = CIRCLE ( 'NONE', #149, 16.00000000000000000 ) ;
#116 = CARTESIAN_POINT ( 'NONE',  ( 0.000000000000000000, 0.000000000000000000, 10.19999999999998685 ) ) ;
#117 = DIRECTION ( 'NONE',  ( 0.000000000000000000, 0.000000000000000000, 1.000000000000000000 ) ) ;
#118 = LOCAL_TIME ( 11, 16, 2.000000000000000000, #226 ) ;
#119 = FACE_OUTER_BOUND ( 'NONE', #114, .T. ) ;
#120 = CARTESIAN_POINT ( 'NONE',  ( 0.000000000000000000, 0.000000000000000000, 0.000000000000000000 ) ) ;
#121 = DIRECTION ( 'NONE',  ( 1.000000000000000000, 0.000000000000000000, 0.000000000000000000 ) ) ;
#122 = DIRECTION ( 'NONE',  ( 1.000000000000000000, 0.000000000000000000, -0.000000000000000000 ) ) ;
#123 = AXIS2_PLACEMENT_3D ( 'NONE', #5, #307, #102 ) ;
#124 = DIRECTION ( 'NONE',  ( 0.000000000000000000, 0.000000000000000000, 1.000000000000000000 ) ) ;
#125 = DIRECTION ( 'NONE',  ( 1.000000000000000000, 0.000000000000000000, 0.000000000000000000 ) ) ;
#126 = UNCERTAINTY_MEASURE_WITH_UNIT (LENGTH_MEASURE( 1.000000000000000082E-05 ), #21, 'distance_accuracy_value', 'NONE');
#127 = APPROVAL_DATE_TIME ( #299, #34 ) ;
#128 = AXIS2_PLACEMENT_3D ( 'NONE', #162, #19, #194 ) ;
#129 = CIRCLE ( 'NONE', #11, 16.00000000000000000 ) ;
#130 = PERSON_AND_ORGANIZATION ( #38, #301 ) ;
#131 = EDGE_LOOP ( 'NONE', ( #178, #297, #82, #86 ) ) ;
#132 = CC_DESIGN_PERSON_AND_ORGANIZATION_ASSIGNMENT ( #80, #26, ( #24 ) ) ;
#133 = CALENDAR_DATE ( 2022, 20, 6 ) ;
#134 = ORIENTED_EDGE ( 'NONE', *, *, #208, .F. ) ;
#135 = APPROVAL_DATE_TIME ( #30, #161 ) ;
#136 = ORIENTED_EDGE ( 'NONE', *, *, #110, .T. ) ;
#137 = CARTESIAN_POINT ( 'NONE',  ( 0.000000000000000000, 0.000000000000000000, 510.0000000000000000 ) ) ;
#138 = FACE_OUTER_BOUND ( 'NONE', #111, .T. ) ;
#139 = CARTESIAN_POINT ( 'NONE',  ( -20.00000000000000000, 0.000000000000000000, 10.00000000000000000 ) ) ;
#140 = CARTESIAN_POINT ( 'NONE',  ( 20.00000000000000000, 2.449293598294706513E-15, 10.00000000000000000 ) ) ;
#141 = DIRECTION ( 'NONE',  ( -0.000000000000000000, -0.000000000000000000, -1.000000000000000000 ) ) ;
#142 = EDGE_CURVE ( 'NONE', #176, #35, #44, .T. ) ;
#143 = CARTESIAN_POINT ( 'NONE',  ( 0.000000000000000000, 0.000000000000000000, 510.0000000000000000 ) ) ;
#144 = DIRECTION ( 'NONE',  ( 1.000000000000000000, 0.000000000000000000, 0.000000000000000000 ) ) ;
#145 = DIRECTION ( 'NONE',  ( -0.000000000000000000, -0.000000000000000000, -1.000000000000000000 ) ) ;
#146 = CARTESIAN_POINT ( 'NONE',  ( 0.000000000000000000, 0.000000000000000000, 10.00000000000000000 ) ) ;
#147 = EDGE_CURVE ( 'NONE', #170, #52, #265, .T. ) ;
#148 = PERSON_AND_ORGANIZATION ( #38, #301 ) ;
#149 = AXIS2_PLACEMENT_3D ( 'NONE', #46, #167, #144 ) ;
#150 = DIRECTION ( 'NONE',  ( 1.000000000000000000, 0.000000000000000000, 0.000000000000000000 ) ) ;
#151 = DATE_AND_TIME ( #55, #72 ) ;
#152 = VERTEX_POINT ( 'NONE', #235 ) ;
#153 = PERSON_AND_ORGANIZATION ( #38, #301 ) ;
#154 = ORIENTED_EDGE ( 'NONE', *, *, #294, .F. ) ;
#155 = COORDINATED_UNIVERSAL_TIME_OFFSET ( 1, 0, .AHEAD. ) ;
#156 = ADVANCED_FACE ( 'NONE', ( #138 ), #210, .T. ) ;
#157 = DIRECTION ( 'NONE',  ( -0.000000000000000000, -0.000000000000000000, -1.000000000000000000 ) ) ;
#158 = DIRECTION ( 'NONE',  ( 0.000000000000000000, 0.000000000000000000, 1.000000000000000000 ) ) ;
#159 = VECTOR ( 'NONE', #259, 1000.000000000000000 ) ;
#160 = VECTOR ( 'NONE', #45, 1000.000000000000000 ) ;
#161 = APPROVAL ( #8, 'NEURÈENÝ' ) ;
#162 = CARTESIAN_POINT ( 'NONE',  ( 0.000000000000000000, 0.000000000000000000, 10.19999999999998685 ) ) ;
#163 = DIRECTION ( 'NONE',  ( 0.000000000000000000, 0.000000000000000000, 1.000000000000000000 ) ) ;
#164 = CYLINDRICAL_SURFACE ( 'NONE', #96, 16.00000000000000000 ) ;
#165 = DIRECTION ( 'NONE',  ( 1.000000000000000000, 0.000000000000000000, 0.000000000000000000 ) ) ;
#166 = ADVANCED_BREP_SHAPE_REPRESENTATION ( '68d1', ( #231, #183 ), #234 ) ;
#167 = DIRECTION ( 'NONE',  ( 0.000000000000000000, 0.000000000000000000, 1.000000000000000000 ) ) ;
#168 = CARTESIAN_POINT ( 'NONE',  ( 0.000000000000000000, 0.000000000000000000, 10.00000000000000000 ) ) ;
#169 = CIRCLE ( 'NONE', #260, 0.2000000000000005107 ) ;
#170 = VERTEX_POINT ( 'NONE', #139 ) ;
#171 = DESIGN_CONTEXT ( 'detailed design', #283, 'design' ) ;
#172 = VECTOR ( 'NONE', #157, 1000.000000000000000 ) ;
#173 = APPROVAL_STATUS ( 'not_yet_approved' ) ;
#174 = ORIENTED_EDGE ( 'NONE', *, *, #217, .T. ) ;
#175 = ORIENTED_EDGE ( 'NONE', *, *, #142, .T. ) ;
#176 = VERTEX_POINT ( 'NONE', #303 ) ;
#177 = ORIENTED_EDGE ( 'NONE', *, *, #4, .T. ) ;
#178 = ORIENTED_EDGE ( 'NONE', *, *, #39, .F. ) ;
#179 = CARTESIAN_POINT ( 'NONE',  ( 20.00000000000000000, 2.449293598294706513E-15, 10.00000000000000000 ) ) ;
#180 = ADVANCED_FACE ( 'NONE', ( #91 ), #181, .F. ) ;
#181 = TOROIDAL_SURFACE ( 'NONE', #128, 16.19999999999999929, 0.2000000000000000111 ) ;
#182 = CARTESIAN_POINT ( 'NONE',  ( 0.000000000000000000, 0.000000000000000000, 0.000000000000000000 ) ) ;
#183 = AXIS2_PLACEMENT_3D ( 'NONE', #188, #289, #150 ) ;
#184 = CC_DESIGN_DATE_AND_TIME_ASSIGNMENT ( #151, #201, ( #93 ) ) ;
#185 = LINE ( 'NONE', #140, #159 ) ;
#186 = PRODUCT_DEFINITION_SHAPE ( 'NONE', 'NONE',  #93 ) ;
#187 = FACE_OUTER_BOUND ( 'NONE', #196, .T. ) ;
#188 = CARTESIAN_POINT ( 'NONE',  ( 0.000000000000000000, 0.000000000000000000, 0.000000000000000000 ) ) ;
#189 = LOCAL_TIME ( 11, 16, 2.000000000000000000, #273 ) ;
#190 = LINE ( 'NONE', #48, #160 ) ;
#191 =( NAMED_UNIT ( * ) PLANE_ANGLE_UNIT ( ) SI_UNIT ( $, .RADIAN. ) );
#192 = VECTOR ( 'NONE', #305, 1000.000000000000000 ) ;
#193 = CIRCLE ( 'NONE', #23, 20.00000000000000000 ) ;
#194 = DIRECTION ( 'NONE',  ( 1.000000000000000000, 0.000000000000000000, 0.000000000000000000 ) ) ;
#195 = APPLICATION_PROTOCOL_DEFINITION ( 'international standard', 'config_control_design', 1994, #283 ) ;
#196 = EDGE_LOOP ( 'NONE', ( #274, #200, #136, #175 ) ) ;
#197 = MECHANICAL_CONTEXT ( 'NONE', #211, 'mechanical' ) ;
#198 = VERTEX_POINT ( 'NONE', #41 ) ;
#199 = DATE_AND_TIME ( #204, #189 ) ;
#200 = ORIENTED_EDGE ( 'NONE', *, *, #147, .F. ) ;
#201 = DATE_TIME_ROLE ( 'creation_date' ) ;
#202 = VERTEX_POINT ( 'NONE', #287 ) ;
#203 = ADVANCED_FACE ( 'NONE', ( #71 ), #240, .T. ) ;
#204 = CALENDAR_DATE ( 2022, 20, 6 ) ;
#205 = CIRCLE ( 'NONE', #245, 16.19999999999999929 ) ;
#206 = DIRECTION ( 'NONE',  ( 0.000000000000000000, 0.000000000000000000, 1.000000000000000000 ) ) ;
#207 = CIRCLE ( 'NONE', #70, 16.19999999999999929 ) ;
#208 = EDGE_CURVE ( 'NONE', #108, #202, #227, .T. ) ;
#209 = CARTESIAN_POINT ( 'NONE',  ( 0.000000000000000000, 0.000000000000000000, 10.00000000000000000 ) ) ;
#210 = CYLINDRICAL_SURFACE ( 'NONE', #264, 20.00000000000000000 ) ;
#211 = APPLICATION_CONTEXT ( 'configuration controlled 3d designs of mechanical parts and assemblies' ) ;
#212 = FACE_OUTER_BOUND ( 'NONE', #56, .T. ) ;
#213 = LINE ( 'NONE', #262, #192 ) ;
#214 = APPROVAL_PERSON_ORGANIZATION ( #293, #17, #247 ) ;
#215 =( NAMED_UNIT ( * ) SI_UNIT ( $, .STERADIAN. ) SOLID_ANGLE_UNIT ( ) );
#216 = DIRECTION ( 'NONE',  ( 0.000000000000000000, 0.000000000000000000, 1.000000000000000000 ) ) ;
#217 = EDGE_CURVE ( 'NONE', #152, #198, #207, .T. ) ;
#218 = LOCAL_TIME ( 11, 16, 2.000000000000000000, #155 ) ;
#219 = FACE_BOUND ( 'NONE', #253, .T. ) ;
#220 = ADVANCED_FACE ( 'NONE', ( #219, #3 ), #270, .T. ) ;
#221 = ORIENTED_EDGE ( 'NONE', *, *, #239, .T. ) ;
#222 = PERSON_AND_ORGANIZATION_ROLE ( 'classification_officer' ) ;
#223 = ORIENTED_EDGE ( 'NONE', *, *, #110, .F. ) ;
#224 = EDGE_LOOP ( 'NONE', ( #236, #251 ) ) ;
#225 = AXIS2_PLACEMENT_3D ( 'NONE', #285, #163, #233 ) ;
#226 = COORDINATED_UNIVERSAL_TIME_OFFSET ( 1, 0, .AHEAD. ) ;
#227 = CIRCLE ( 'NONE', #6, 16.00000000000000000 ) ;
#228 = ORIENTED_EDGE ( 'NONE', *, *, #68, .T. ) ;
#229 = DIRECTION ( 'NONE',  ( 0.000000000000000000, 0.000000000000000000, 1.000000000000000000 ) ) ;
#230 = CC_DESIGN_PERSON_AND_ORGANIZATION_ASSIGNMENT ( #296, #222, ( #66 ) ) ;
#231 = MANIFOLD_SOLID_BREP ( 'Zaoblit1', #64 ) ;
#232 = DIRECTION ( 'NONE',  ( 0.000000000000000000, 0.000000000000000000, 1.000000000000000000 ) ) ;
#233 = DIRECTION ( 'NONE',  ( 1.000000000000000000, 0.000000000000000000, 0.000000000000000000 ) ) ;
#234 =( GEOMETRIC_REPRESENTATION_CONTEXT ( 3 ) GLOBAL_UNCERTAINTY_ASSIGNED_CONTEXT ( ( #126 ) ) GLOBAL_UNIT_ASSIGNED_CONTEXT ( ( #21, #191, #215 ) ) REPRESENTATION_CONTEXT ( 'NONE', 'WORKASPACE' ) );
#235 = CARTESIAN_POINT ( 'NONE',  ( 16.19999999999999929, 0.000000000000000000, 9.999999999999992895 ) ) ;
#236 = ORIENTED_EDGE ( 'NONE', *, *, #208, .T. ) ;
#237 = CC_DESIGN_SECURITY_CLASSIFICATION ( #66, ( #24 ) ) ;
#238 = DIRECTION ( 'NONE',  ( 0.000000000000000000, 0.000000000000000000, 1.000000000000000000 ) ) ;
#239 = EDGE_CURVE ( 'NONE', #52, #170, #193, .T. ) ;
#240 = CYLINDRICAL_SURFACE ( 'NONE', #103, 16.00000000000000000 ) ;
#241 = AXIS2_PLACEMENT_3D ( 'NONE', #146, #145, #47 ) ;
#242 = APPROVAL_PERSON_ORGANIZATION ( #153, #161, #33 ) ;
#243 = DIRECTION ( 'NONE',  ( 1.000000000000000000, 0.000000000000000000, 0.000000000000000000 ) ) ;
#244 = EDGE_CURVE ( 'NONE', #29, #152, #169, .T. ) ;
#245 = AXIS2_PLACEMENT_3D ( 'NONE', #168, #269, #243 ) ;
#246 = AXIS2_PLACEMENT_3D ( 'NONE', #22, #124, #122 ) ;
#247 = APPROVAL_ROLE ( '' ) ;
#248 = CC_DESIGN_APPROVAL ( #17, ( #93 ) ) ;
#249 = PERSON_AND_ORGANIZATION ( #38, #301 ) ;
#250 = COORDINATED_UNIVERSAL_TIME_OFFSET ( 1, 0, .AHEAD. ) ;
#251 = ORIENTED_EDGE ( 'NONE', *, *, #39, .T. ) ;
#252 = PERSON_AND_ORGANIZATION_ROLE ( 'design_owner' ) ;
#253 = EDGE_LOOP ( 'NONE', ( #174, #27 ) ) ;
#254 = CC_DESIGN_APPROVAL ( #34, ( #66 ) ) ;
#255 = CC_DESIGN_APPROVAL ( #161, ( #24 ) ) ;
#256 = ORIENTED_EDGE ( 'NONE', *, *, #147, .T. ) ;
#257 = PRODUCT_RELATED_PRODUCT_CATEGORY ( 'detail', '', ( #99 ) ) ;
#258 = CARTESIAN_POINT ( 'NONE',  ( 0.000000000000000000, 0.000000000000000000, 10.00000000000000000 ) ) ;
#259 = DIRECTION ( 'NONE',  ( -0.000000000000000000, -0.000000000000000000, -1.000000000000000000 ) ) ;
#260 = AXIS2_PLACEMENT_3D ( 'NONE', #77, #263, #266 ) ;
#261 = ADVANCED_FACE ( 'NONE', ( #292 ), #268, .T. ) ;
#262 = CARTESIAN_POINT ( 'NONE',  ( -16.00000000000000000, 0.000000000000000000, 510.0000000000000000 ) ) ;
#263 = DIRECTION ( 'NONE',  ( 0.000000000000000000, -1.000000000000000000, 0.000000000000000000 ) ) ;
#264 = AXIS2_PLACEMENT_3D ( 'NONE', #209, #302, #282 ) ;
#265 = CIRCLE ( 'NONE', #112, 20.00000000000000000 ) ;
#266 = DIRECTION ( 'NONE',  ( 0.000000000000000000, 0.000000000000000000, -1.000000000000000000 ) ) ;
#267 = ADVANCED_FACE ( 'NONE', ( #187 ), #100, .T. ) ;
#268 = PLANE ( 'NONE',  #123 ) ;
#269 = DIRECTION ( 'NONE',  ( -0.000000000000000000, -0.000000000000000000, -1.000000000000000000 ) ) ;
#270 = PLANE ( 'NONE',  #246 ) ;
#271 = LOCAL_TIME ( 11, 16, 2.000000000000000000, #28 ) ;
#272 = PERSON_AND_ORGANIZATION_ROLE ( 'creator' ) ;
#273 = COORDINATED_UNIVERSAL_TIME_OFFSET ( 1, 0, .AHEAD. ) ;
#274 = ORIENTED_EDGE ( 'NONE', *, *, #88, .F. ) ;
#275 = DATE_AND_TIME ( #10, #118 ) ;
#276 = EDGE_CURVE ( 'NONE', #202, #29, #190, .T. ) ;
#277 = ORIENTED_EDGE ( 'NONE', *, *, #239, .F. ) ;
#278 = ORIENTED_EDGE ( 'NONE', *, *, #83, .F. ) ;
#279 = AXIS2_PLACEMENT_3D ( 'NONE', #116, #206, #286 ) ;
#280 = ORIENTED_EDGE ( 'NONE', *, *, #306, .F. ) ;
#281 = DIRECTION ( 'NONE',  ( 1.000000000000000000, 0.000000000000000000, 0.000000000000000000 ) ) ;
#282 = DIRECTION ( 'NONE',  ( -1.000000000000000000, 0.000000000000000000, 0.000000000000000000 ) ) ;
#283 = APPLICATION_CONTEXT ( 'configuration controlled 3d designs of mechanical parts and assemblies' ) ;
#284 = CARTESIAN_POINT ( 'NONE',  ( -20.00000000000000000, 0.000000000000000000, 10.00000000000000000 ) ) ;
#285 = CARTESIAN_POINT ( 'NONE',  ( 0.000000000000000000, 0.000000000000000000, 510.0000000000000000 ) ) ;
#286 = DIRECTION ( 'NONE',  ( 1.000000000000000000, 0.000000000000000000, 0.000000000000000000 ) ) ;
#287 = CARTESIAN_POINT ( 'NONE',  ( 16.00000000000000000, 1.959434878635765131E-15, 510.0000000000000000 ) ) ;
#288 = CC_DESIGN_DATE_AND_TIME_ASSIGNMENT ( #275, #109, ( #66 ) ) ;
#289 = DIRECTION ( 'NONE',  ( 0.000000000000000000, 0.000000000000000000, 1.000000000000000000 ) ) ;
#290 = CARTESIAN_POINT ( 'NONE',  ( 0.000000000000000000, 0.000000000000000000, 510.0000000000000000 ) ) ;
#291 = CIRCLE ( 'NONE', #225, 16.00000000000000000 ) ;
#292 = FACE_OUTER_BOUND ( 'NONE', #224, .T. ) ;
#293 = PERSON_AND_ORGANIZATION ( #38, #301 ) ;
#294 = EDGE_CURVE ( 'NONE', #198, #152, #205, .T. ) ;
#295 = ORIENTED_EDGE ( 'NONE', *, *, #244, .F. ) ;
#296 = PERSON_AND_ORGANIZATION ( #38, #301 ) ;
#297 = ORIENTED_EDGE ( 'NONE', *, *, #276, .T. ) ;
#298 = CC_DESIGN_PERSON_AND_ORGANIZATION_ASSIGNMENT ( #113, #272, ( #93 ) ) ;
#299 = DATE_AND_TIME ( #133, #271 ) ;
#300 = CARTESIAN_POINT ( 'NONE',  ( -16.00000000000000000, 0.000000000000000000, 10.19999999999998685 ) ) ;
#301 = ORGANIZATION ( 'NEURÈENÝ', 'NEURÈENÝ', '' ) ;
#302 = DIRECTION ( 'NONE',  ( -0.000000000000000000, -0.000000000000000000, -1.000000000000000000 ) ) ;
#303 = CARTESIAN_POINT ( 'NONE',  ( -20.00000000000000000, 0.000000000000000000, 0.000000000000000000 ) ) ;
#304 = DIRECTION ( 'NONE',  ( 0.000000000000000000, 0.000000000000000000, 1.000000000000000000 ) ) ;
#305 = DIRECTION ( 'NONE',  ( -0.000000000000000000, -0.000000000000000000, -1.000000000000000000 ) ) ;
#306 = EDGE_CURVE ( 'NONE', #106, #29, #115, .T. ) ;
#307 = DIRECTION ( 'NONE',  ( 0.000000000000000000, 0.000000000000000000, 1.000000000000000000 ) ) ;
ENDSEC;
END-ISO-10303-21;
