ISO-10303-21;
HEADER;
FILE_DESCRIPTION (( 'STEP AP203' ),
    '1' );
FILE_NAME ('6414.STEP',
    '2022-06-20T10:12:52',
    ( '' ),
    ( '' ),
    'SwSTEP 2.0',
    'SolidWorks 2019',
    '' );
FILE_SCHEMA (( 'CONFIG_CONTROL_DESIGN' ));
ENDSEC;

DATA;
#1 = AXIS2_PLACEMENT_3D ( 'NONE', #39, #202, #249 ) ;
#2 = PERSON_AND_ORGANIZATION_ROLE ( 'classification_officer' ) ;
#3 = CIRCLE ( 'NONE', #219, 0.2000000000000000944 ) ;
#4 = ORIENTED_EDGE ( 'NONE', *, *, #286, .F. ) ;
#5 = PERSON_AND_ORGANIZATION_ROLE ( 'creator' ) ;
#6 = EDGE_LOOP ( 'NONE', ( #242, #177 ) ) ;
#7 = ORIENTED_EDGE ( 'NONE', *, *, #201, .T. ) ;
#8 = CC_DESIGN_PERSON_AND_ORGANIZATION_ASSIGNMENT ( #118, #176, ( #233 ) ) ;
#9 = AXIS2_PLACEMENT_3D ( 'NONE', #296, #181, #66 ) ;
#10 = PERSON_AND_ORGANIZATION ( #18, #224 ) ;
#11 = VERTEX_POINT ( 'NONE', #57 ) ;
#12 = ORIENTED_EDGE ( 'NONE', *, *, #250, .F. ) ;
#13 = DIRECTION ( 'NONE',  ( 1.000000000000000000, 0.000000000000000000, 0.000000000000000000 ) ) ;
#14 = DIRECTION ( 'NONE',  ( -0.000000000000000000, -0.000000000000000000, -1.000000000000000000 ) ) ;
#15 = DIRECTION ( 'NONE',  ( 1.000000000000000000, 0.000000000000000000, 0.000000000000000000 ) ) ;
#16 = FACE_OUTER_BOUND ( 'NONE', #288, .T. ) ;
#17 =( GEOMETRIC_REPRESENTATION_CONTEXT ( 3 ) GLOBAL_UNCERTAINTY_ASSIGNED_CONTEXT ( ( #90 ) ) GLOBAL_UNIT_ASSIGNED_CONTEXT ( ( #167, #172, #47 ) ) REPRESENTATION_CONTEXT ( 'NONE', 'WORKASPACE' ) );
#18 = PERSON ( 'NEURÈENÝ', 'NEURÈENÝ', 'NEURÈENÝ', ('NEURÈENÝ'), ('NEURÈENÝ'), ('NEURÈENÝ') ) ;
#19 = CARTESIAN_POINT ( 'NONE',  ( 0.000000000000000000, 0.000000000000000000, 3.199999999999980638 ) ) ;
#20 = FACE_OUTER_BOUND ( 'NONE', #102, .T. ) ;
#21 = CC_DESIGN_DATE_AND_TIME_ASSIGNMENT ( #145, #194, ( #140 ) ) ;
#22 = AXIS2_PLACEMENT_3D ( 'NONE', #165, #142, #185 ) ;
#23 = DIRECTION ( 'NONE',  ( -0.000000000000000000, -0.000000000000000000, -1.000000000000000000 ) ) ;
#24 = CARTESIAN_POINT ( 'NONE',  ( 0.000000000000000000, 0.000000000000000000, 503.0000000000000000 ) ) ;
#25 = DATE_TIME_ROLE ( 'classification_date' ) ;
#26 = PERSON_AND_ORGANIZATION ( #18, #224 ) ;
#27 = CIRCLE ( 'NONE', #38, 3.000000000000000444 ) ;
#28 = EDGE_LOOP ( 'NONE', ( #192, #122 ) ) ;
#29 = APPROVAL_DATE_TIME ( #213, #144 ) ;
#30 = ORIENTED_EDGE ( 'NONE', *, *, #68, .F. ) ;
#31 = CC_DESIGN_PERSON_AND_ORGANIZATION_ASSIGNMENT ( #10, #2, ( #251 ) ) ;
#32 = COORDINATED_UNIVERSAL_TIME_OFFSET ( 1, 0, .AHEAD. ) ;
#33 = COORDINATED_UNIVERSAL_TIME_OFFSET ( 1, 0, .AHEAD. ) ;
#34 = ORIENTED_EDGE ( 'NONE', *, *, #41, .T. ) ;
#35 = APPROVAL_PERSON_ORGANIZATION ( #123, #260, #268 ) ;
#36 = DIRECTION ( 'NONE',  ( 0.000000000000000000, 0.000000000000000000, 1.000000000000000000 ) ) ;
#37 = DESIGN_CONTEXT ( 'detailed design', #166, 'design' ) ;
#38 = AXIS2_PLACEMENT_3D ( 'NONE', #40, #58, #160 ) ;
#39 = CARTESIAN_POINT ( 'NONE',  ( 0.000000000000000000, 0.000000000000000000, 3.000000000000000000 ) ) ;
#40 = CARTESIAN_POINT ( 'NONE',  ( 0.000000000000000000, 0.000000000000000000, 0.000000000000000000 ) ) ;
#41 = EDGE_CURVE ( 'NONE', #290, #98, #125, .T. ) ;
#42 = DIRECTION ( 'NONE',  ( 1.000000000000000000, 0.000000000000000000, 0.000000000000000000 ) ) ;
#43 = APPLICATION_PROTOCOL_DEFINITION ( 'international standard', 'config_control_design', 1994, #297 ) ;
#44 = VECTOR ( 'NONE', #232, 1000.000000000000000 ) ;
#45 = EDGE_CURVE ( 'NONE', #54, #150, #169, .T. ) ;
#46 = DIRECTION ( 'NONE',  ( 0.000000000000000000, 0.000000000000000000, 1.000000000000000000 ) ) ;
#47 =( NAMED_UNIT ( * ) SI_UNIT ( $, .STERADIAN. ) SOLID_ANGLE_UNIT ( ) );
#48 = EDGE_LOOP ( 'NONE', ( #222, #156, #298, #121 ) ) ;
#49 = CALENDAR_DATE ( 2022, 20, 6 ) ;
#50 = ORIENTED_EDGE ( 'NONE', *, *, #68, .T. ) ;
#51 = APPROVAL_STATUS ( 'not_yet_approved' ) ;
#52 = EDGE_LOOP ( 'NONE', ( #124, #174, #34, #195 ) ) ;
#53 = ADVANCED_FACE ( 'NONE', ( #133 ), #180, .F. ) ;
#54 = VERTEX_POINT ( 'NONE', #83 ) ;
#55 = CIRCLE ( 'NONE', #85, 1.800000000000000266 ) ;
#56 = DIRECTION ( 'NONE',  ( 0.000000000000000000, 0.000000000000000000, 1.000000000000000000 ) ) ;
#57 = CARTESIAN_POINT ( 'NONE',  ( 1.800000000000000266, 0.000000000000000000, 2.999999999999990674 ) ) ;
#58 = DIRECTION ( 'NONE',  ( 0.000000000000000000, 0.000000000000000000, 1.000000000000000000 ) ) ;
#59 = VECTOR ( 'NONE', #206, 1000.000000000000000 ) ;
#60 = ADVANCED_FACE ( 'NONE', ( #274 ), #277, .T. ) ;
#61 = DIRECTION ( 'NONE',  ( -1.000000000000000000, 0.000000000000000000, 0.000000000000000000 ) ) ;
#62 = DIRECTION ( 'NONE',  ( 1.000000000000000000, 0.000000000000000000, -0.000000000000000000 ) ) ;
#63 = AXIS2_PLACEMENT_3D ( 'NONE', #209, #46, #87 ) ;
#64 = LINE ( 'NONE', #280, #44 ) ;
#65 = DIRECTION ( 'NONE',  ( -0.000000000000000000, -0.000000000000000000, -1.000000000000000000 ) ) ;
#66 = DIRECTION ( 'NONE',  ( 1.000000000000000000, 0.000000000000000000, -0.000000000000000000 ) ) ;
#67 = AXIS2_PLACEMENT_3D ( 'NONE', #234, #307, #42 ) ;
#68 = EDGE_CURVE ( 'NONE', #128, #11, #55, .T. ) ;
#69 = CC_DESIGN_APPROVAL ( #260, ( #140 ) ) ;
#70 = CYLINDRICAL_SURFACE ( 'NONE', #119, 1.600000000000000089 ) ;
#71 = PERSON_AND_ORGANIZATION ( #18, #224 ) ;
#72 = CALENDAR_DATE ( 2022, 20, 6 ) ;
#73 = VERTEX_POINT ( 'NONE', #253 ) ;
#74 = PERSON_AND_ORGANIZATION_ROLE ( 'creator' ) ;
#75 = CC_DESIGN_APPROVAL ( #275, ( #175 ) ) ;
#76 = ORIENTED_EDGE ( 'NONE', *, *, #244, .T. ) ;
#77 = EDGE_CURVE ( 'NONE', #150, #54, #256, .T. ) ;
#78 = DIRECTION ( 'NONE',  ( 1.000000000000000000, 0.000000000000000000, 0.000000000000000000 ) ) ;
#79 = ORIENTED_EDGE ( 'NONE', *, *, #193, .T. ) ;
#80 = DIRECTION ( 'NONE',  ( 1.000000000000000000, 0.000000000000000000, 0.000000000000000000 ) ) ;
#81 = CIRCLE ( 'NONE', #22, 0.1999999999999998723 ) ;
#82 = DIRECTION ( 'NONE',  ( 0.000000000000000000, -1.000000000000000000, 0.000000000000000000 ) ) ;
#83 = CARTESIAN_POINT ( 'NONE',  ( -3.000000000000000444, 0.000000000000000000, 3.000000000000000000 ) ) ;
#84 = FACE_OUTER_BOUND ( 'NONE', #271, .T. ) ;
#85 = AXIS2_PLACEMENT_3D ( 'NONE', #183, #14, #80 ) ;
#86 = CARTESIAN_POINT ( 'NONE',  ( 1.800000000000000266, 0.000000000000000000, 3.199999999999980638 ) ) ;
#87 = DIRECTION ( 'NONE',  ( 1.000000000000000000, 0.000000000000000000, -0.000000000000000000 ) ) ;
#88 = AXIS2_PLACEMENT_3D ( 'NONE', #19, #197, #294 ) ;
#89 = PLANE ( 'NONE',  #63 ) ;
#90 = UNCERTAINTY_MEASURE_WITH_UNIT (LENGTH_MEASURE( 1.000000000000000082E-05 ), #167, 'distance_accuracy_value', 'NONE');
#91 = DIRECTION ( 'NONE',  ( -0.000000000000000000, -0.000000000000000000, -1.000000000000000000 ) ) ;
#92 = CC_DESIGN_PERSON_AND_ORGANIZATION_ASSIGNMENT ( #287, #74, ( #175 ) ) ;
#93 = LINE ( 'NONE', #303, #246 ) ;
#94 = LOCAL_TIME ( 12, 12, 52.00000000000000000, #100 ) ;
#95 = COORDINATED_UNIVERSAL_TIME_OFFSET ( 1, 0, .AHEAD. ) ;
#96 = ADVANCED_FACE ( 'NONE', ( #227 ), #225, .T. ) ;
#97 = PERSON_AND_ORGANIZATION_ROLE ( 'design_supplier' ) ;
#98 = VERTEX_POINT ( 'NONE', #299 ) ;
#99 = PERSON_AND_ORGANIZATION ( #18, #224 ) ;
#100 = COORDINATED_UNIVERSAL_TIME_OFFSET ( 1, 0, .AHEAD. ) ;
#101 = CC_DESIGN_SECURITY_CLASSIFICATION ( #251, ( #175 ) ) ;
#102 = EDGE_LOOP ( 'NONE', ( #12, #79, #146, #293 ) ) ;
#103 = APPROVAL_DATE_TIME ( #216, #260 ) ;
#104 = VERTEX_POINT ( 'NONE', #162 ) ;
#105 = ORIENTED_EDGE ( 'NONE', *, *, #116, .T. ) ;
#106 = CARTESIAN_POINT ( 'NONE',  ( 3.000000000000000444, 3.673940397442060361E-16, 3.000000000000000000 ) ) ;
#107 = CIRCLE ( 'NONE', #67, 1.800000000000000266 ) ;
#108 = DIRECTION ( 'NONE',  ( 0.000000000000000000, 0.000000000000000000, 1.000000000000000000 ) ) ;
#109 = CARTESIAN_POINT ( 'NONE',  ( 0.000000000000000000, 0.000000000000000000, 3.000000000000000000 ) ) ;
#110 = CARTESIAN_POINT ( 'NONE',  ( 0.000000000000000000, 0.000000000000000000, 3.199999999999980638 ) ) ;
#111 = AXIS2_PLACEMENT_3D ( 'NONE', #188, #23, #259 ) ;
#112 = MANIFOLD_SOLID_BREP ( 'Zaoblit1', #262 ) ;
#113 = CYLINDRICAL_SURFACE ( 'NONE', #111, 3.000000000000000444 ) ;
#114 = LOCAL_TIME ( 12, 12, 52.00000000000000000, #95 ) ;
#115 = CARTESIAN_POINT ( 'NONE',  ( 0.000000000000000000, 0.000000000000000000, 3.199999999999980638 ) ) ;
#116 = EDGE_CURVE ( 'NONE', #217, #11, #3, .T. ) ;
#117 = DIRECTION ( 'NONE',  ( 1.000000000000000000, 0.000000000000000000, 0.000000000000000000 ) ) ;
#118 = PERSON_AND_ORGANIZATION ( #18, #224 ) ;
#119 = AXIS2_PLACEMENT_3D ( 'NONE', #258, #65, #187 ) ;
#120 = APPROVAL_STATUS ( 'not_yet_approved' ) ;
#121 = ORIENTED_EDGE ( 'NONE', *, *, #130, .T. ) ;
#122 = ORIENTED_EDGE ( 'NONE', *, *, #41, .F. ) ;
#123 = PERSON_AND_ORGANIZATION ( #18, #224 ) ;
#124 = ORIENTED_EDGE ( 'NONE', *, *, #77, .F. ) ;
#125 = CIRCLE ( 'NONE', #301, 3.000000000000000444 ) ;
#126 = SHAPE_DEFINITION_REPRESENTATION ( #212, #255 ) ;
#127 = AXIS2_PLACEMENT_3D ( 'NONE', #24, #139, #117 ) ;
#128 = VERTEX_POINT ( 'NONE', #182 ) ;
#129 = FACE_OUTER_BOUND ( 'NONE', #6, .T. ) ;
#130 = EDGE_CURVE ( 'NONE', #98, #290, #27, .T. ) ;
#131 = DIRECTION ( 'NONE',  ( 0.000000000000000000, 0.000000000000000000, 1.000000000000000000 ) ) ;
#132 = CIRCLE ( 'NONE', #161, 1.600000000000000089 ) ;
#133 = FACE_OUTER_BOUND ( 'NONE', #28, .T. ) ;
#134 = DIRECTION ( 'NONE',  ( 1.000000000000000000, 0.000000000000000000, 0.000000000000000000 ) ) ;
#135 = CC_DESIGN_PERSON_AND_ORGANIZATION_ASSIGNMENT ( #26, #5, ( #140 ) ) ;
#136 = CARTESIAN_POINT ( 'NONE',  ( 0.000000000000000000, 0.000000000000000000, 3.199999999999980638 ) ) ;
#137 = CC_DESIGN_APPROVAL ( #144, ( #251 ) ) ;
#138 = CARTESIAN_POINT ( 'NONE',  ( -3.000000000000000444, 0.000000000000000000, 3.000000000000000000 ) ) ;
#139 = DIRECTION ( 'NONE',  ( 0.000000000000000000, 0.000000000000000000, 1.000000000000000000 ) ) ;
#140 = PRODUCT_DEFINITION ( 'NEZNÁMÝ', '', #175, #37 ) ;
#141 = CARTESIAN_POINT ( 'NONE',  ( 0.000000000000000000, 0.000000000000000000, 0.000000000000000000 ) ) ;
#142 = DIRECTION ( 'NONE',  ( 1.224646799147353207E-16, 1.000000000000000000, -0.000000000000000000 ) ) ;
#143 = DIRECTION ( 'NONE',  ( 0.000000000000000000, 0.000000000000000000, 1.000000000000000000 ) ) ;
#144 = APPROVAL ( #120, 'NEURÈENÝ' ) ;
#145 = DATE_AND_TIME ( #152, #94 ) ;
#146 = ORIENTED_EDGE ( 'NONE', *, *, #171, .T. ) ;
#147 = AXIS2_PLACEMENT_3D ( 'NONE', #283, #143, #168 ) ;
#148 = CALENDAR_DATE ( 2022, 20, 6 ) ;
#149 = VERTEX_POINT ( 'NONE', #200 ) ;
#150 = VERTEX_POINT ( 'NONE', #106 ) ;
#151 = ADVANCED_FACE ( 'NONE', ( #84 ), #190, .F. ) ;
#152 = CALENDAR_DATE ( 2022, 20, 6 ) ;
#153 = ORIENTED_EDGE ( 'NONE', *, *, #116, .F. ) ;
#154 = LOCAL_TIME ( 12, 12, 52.00000000000000000, #218 ) ;
#155 = DATE_AND_TIME ( #49, #114 ) ;
#156 = ORIENTED_EDGE ( 'NONE', *, *, #45, .F. ) ;
#157 = CARTESIAN_POINT ( 'NONE',  ( 0.000000000000000000, 0.000000000000000000, 3.000000000000000000 ) ) ;
#158 = ADVANCED_FACE ( 'NONE', ( #16 ), #263, .F. ) ;
#159 = DIRECTION ( 'NONE',  ( 0.000000000000000000, 0.000000000000000000, -1.000000000000000000 ) ) ;
#160 = DIRECTION ( 'NONE',  ( 1.000000000000000000, 0.000000000000000000, 0.000000000000000000 ) ) ;
#161 = AXIS2_PLACEMENT_3D ( 'NONE', #110, #36, #199 ) ;
#162 = CARTESIAN_POINT ( 'NONE',  ( -1.600000000000000089, 0.000000000000000000, 503.0000000000000000 ) ) ;
#163 = DIRECTION ( 'NONE',  ( -1.000000000000000000, 0.000000000000000000, 0.000000000000000000 ) ) ;
#164 = AXIS2_PLACEMENT_3D ( 'NONE', #279, #131, #62 ) ;
#165 = CARTESIAN_POINT ( 'NONE',  ( -1.800000000000000266, 2.204364238465236069E-16, 3.199999999999980638 ) ) ;
#166 = APPLICATION_CONTEXT ( 'configuration controlled 3d designs of mechanical parts and assemblies' ) ;
#167 =( LENGTH_UNIT ( ) NAMED_UNIT ( * ) SI_UNIT ( .MILLI., .METRE. ) );
#168 = DIRECTION ( 'NONE',  ( 1.000000000000000000, 0.000000000000000000, 0.000000000000000000 ) ) ;
#169 = CIRCLE ( 'NONE', #1, 3.000000000000000444 ) ;
#170 = CIRCLE ( 'NONE', #147, 1.600000000000000089 ) ;
#171 = EDGE_CURVE ( 'NONE', #217, #149, #132, .T. ) ;
#172 =( NAMED_UNIT ( * ) PLANE_ANGLE_UNIT ( ) SI_UNIT ( $, .RADIAN. ) );
#173 = APPROVAL_ROLE ( '' ) ;
#174 = ORIENTED_EDGE ( 'NONE', *, *, #205, .T. ) ;
#175 = PRODUCT_DEFINITION_FORMATION_WITH_SPECIFIED_SOURCE ( 'LIBOVOLNÝ', '', #233, .NOT_KNOWN. ) ;
#176 = PERSON_AND_ORGANIZATION_ROLE ( 'design_owner' ) ;
#177 = ORIENTED_EDGE ( 'NONE', *, *, #77, .T. ) ;
#178 = ADVANCED_FACE ( 'NONE', ( #273, #129 ), #223, .T. ) ;
#179 = CALENDAR_DATE ( 2022, 20, 6 ) ;
#180 = PLANE ( 'NONE',  #164 ) ;
#181 = DIRECTION ( 'NONE',  ( 0.000000000000000000, 0.000000000000000000, 1.000000000000000000 ) ) ;
#182 = CARTESIAN_POINT ( 'NONE',  ( -1.800000000000000266, 2.204364238465236069E-16, 2.999999999999990674 ) ) ;
#183 = CARTESIAN_POINT ( 'NONE',  ( 0.000000000000000000, 0.000000000000000000, 3.000000000000000000 ) ) ;
#184 = CIRCLE ( 'NONE', #127, 1.600000000000000089 ) ;
#185 = DIRECTION ( 'NONE',  ( -1.000000000000000000, 1.224646799147354686E-16, 0.000000000000000000 ) ) ;
#186 = CIRCLE ( 'NONE', #198, 1.600000000000000089 ) ;
#187 = DIRECTION ( 'NONE',  ( -1.000000000000000000, 0.000000000000000000, 0.000000000000000000 ) ) ;
#188 = CARTESIAN_POINT ( 'NONE',  ( 0.000000000000000000, 0.000000000000000000, 3.000000000000000000 ) ) ;
#189 = EDGE_CURVE ( 'NONE', #149, #217, #186, .T. ) ;
#190 = TOROIDAL_SURFACE ( 'NONE', #267, 1.800000000000000266, 0.2000000000000000111 ) ;
#191 = APPROVAL_ROLE ( '' ) ;
#192 = ORIENTED_EDGE ( 'NONE', *, *, #130, .F. ) ;
#193 = EDGE_CURVE ( 'NONE', #73, #217, #64, .T. ) ;
#194 = DATE_TIME_ROLE ( 'creation_date' ) ;
#195 = ORIENTED_EDGE ( 'NONE', *, *, #300, .F. ) ;
#196 = ORIENTED_EDGE ( 'NONE', *, *, #286, .T. ) ;
#197 = DIRECTION ( 'NONE',  ( 0.000000000000000000, 0.000000000000000000, 1.000000000000000000 ) ) ;
#198 = AXIS2_PLACEMENT_3D ( 'NONE', #115, #261, #204 ) ;
#199 = DIRECTION ( 'NONE',  ( 1.000000000000000000, 0.000000000000000000, 0.000000000000000000 ) ) ;
#200 = CARTESIAN_POINT ( 'NONE',  ( -1.600000000000000089, 0.000000000000000000, 3.199999999999980638 ) ) ;
#201 = EDGE_CURVE ( 'NONE', #104, #73, #184, .T. ) ;
#202 = DIRECTION ( 'NONE',  ( 0.000000000000000000, 0.000000000000000000, 1.000000000000000000 ) ) ;
#203 = LOCAL_TIME ( 12, 12, 52.00000000000000000, #33 ) ;
#204 = DIRECTION ( 'NONE',  ( 1.000000000000000000, 0.000000000000000000, 0.000000000000000000 ) ) ;
#205 = EDGE_CURVE ( 'NONE', #150, #290, #93, .T. ) ;
#206 = DIRECTION ( 'NONE',  ( -0.000000000000000000, -0.000000000000000000, -1.000000000000000000 ) ) ;
#207 = CARTESIAN_POINT ( 'NONE',  ( 3.000000000000000444, 3.673940397442060361E-16, 0.000000000000000000 ) ) ;
#208 = APPROVAL_PERSON_ORGANIZATION ( #99, #275, #191 ) ;
#209 = CARTESIAN_POINT ( 'NONE',  ( 0.000000000000000000, 0.000000000000000000, 503.0000000000000000 ) ) ;
#210 = FACE_OUTER_BOUND ( 'NONE', #48, .T. ) ;
#211 = APPROVAL_DATE_TIME ( #239, #275 ) ;
#212 = PRODUCT_DEFINITION_SHAPE ( 'NONE', 'NONE',  #140 ) ;
#213 = DATE_AND_TIME ( #148, #154 ) ;
#214 = ORIENTED_EDGE ( 'NONE', *, *, #189, .F. ) ;
#215 = CC_DESIGN_DATE_AND_TIME_ASSIGNMENT ( #155, #25, ( #251 ) ) ;
#216 = DATE_AND_TIME ( #72, #203 ) ;
#217 = VERTEX_POINT ( 'NONE', #284 ) ;
#218 = COORDINATED_UNIVERSAL_TIME_OFFSET ( 1, 0, .AHEAD. ) ;
#219 = AXIS2_PLACEMENT_3D ( 'NONE', #86, #82, #159 ) ;
#220 = ORIENTED_EDGE ( 'NONE', *, *, #193, .F. ) ;
#221 = ADVANCED_FACE ( 'NONE', ( #20 ), #70, .T. ) ;
#222 = ORIENTED_EDGE ( 'NONE', *, *, #205, .F. ) ;
#223 = PLANE ( 'NONE',  #9 ) ;
#224 = ORGANIZATION ( 'NEURÈENÝ', 'NEURÈENÝ', '' ) ;
#225 = CYLINDRICAL_SURFACE ( 'NONE', #281, 3.000000000000000444 ) ;
#226 = ADVANCED_FACE ( 'NONE', ( #210 ), #113, .T. ) ;
#227 = FACE_OUTER_BOUND ( 'NONE', #52, .T. ) ;
#228 = AXIS2_PLACEMENT_3D ( 'NONE', #141, #289, #78 ) ;
#229 = CARTESIAN_POINT ( 'NONE',  ( 0.000000000000000000, 0.000000000000000000, 503.0000000000000000 ) ) ;
#230 = ADVANCED_FACE ( 'NONE', ( #305 ), #89, .T. ) ;
#231 = CARTESIAN_POINT ( 'NONE',  ( -1.600000000000000089, 0.000000000000000000, 503.0000000000000000 ) ) ;
#232 = DIRECTION ( 'NONE',  ( -0.000000000000000000, -0.000000000000000000, -1.000000000000000000 ) ) ;
#233 = PRODUCT ( '6414', '6414', '', ( #243 ) ) ;
#234 = CARTESIAN_POINT ( 'NONE',  ( 0.000000000000000000, 0.000000000000000000, 3.000000000000000000 ) ) ;
#235 = APPLICATION_PROTOCOL_DEFINITION ( 'international standard', 'config_control_design', 1994, #166 ) ;
#236 = EDGE_LOOP ( 'NONE', ( #264, #50 ) ) ;
#237 = AXIS2_PLACEMENT_3D ( 'NONE', #229, #252, #163 ) ;
#238 = EDGE_CURVE ( 'NONE', #11, #128, #107, .T. ) ;
#239 = DATE_AND_TIME ( #179, #285 ) ;
#240 = ORIENTED_EDGE ( 'NONE', *, *, #201, .F. ) ;
#241 = APPROVAL_STATUS ( 'not_yet_approved' ) ;
#242 = ORIENTED_EDGE ( 'NONE', *, *, #45, .T. ) ;
#243 = MECHANICAL_CONTEXT ( 'NONE', #297, 'mechanical' ) ;
#244 = EDGE_CURVE ( 'NONE', #104, #149, #282, .T. ) ;
#245 = ORIENTED_EDGE ( 'NONE', *, *, #238, .F. ) ;
#246 = VECTOR ( 'NONE', #91, 1000.000000000000000 ) ;
#247 = EDGE_LOOP ( 'NONE', ( #220, #240, #76, #269 ) ) ;
#248 = DIRECTION ( 'NONE',  ( -0.000000000000000000, -0.000000000000000000, -1.000000000000000000 ) ) ;
#249 = DIRECTION ( 'NONE',  ( 1.000000000000000000, 0.000000000000000000, 0.000000000000000000 ) ) ;
#250 = EDGE_CURVE ( 'NONE', #73, #104, #170, .T. ) ;
#251 = SECURITY_CLASSIFICATION ( '', '', #265 ) ;
#252 = DIRECTION ( 'NONE',  ( -0.000000000000000000, -0.000000000000000000, -1.000000000000000000 ) ) ;
#253 = CARTESIAN_POINT ( 'NONE',  ( 1.600000000000000089, 1.959434878635765230E-16, 503.0000000000000000 ) ) ;
#254 = PRODUCT_RELATED_PRODUCT_CATEGORY ( 'detail', '', ( #233 ) ) ;
#255 = ADVANCED_BREP_SHAPE_REPRESENTATION ( '6414', ( #112, #228 ), #17 ) ;
#256 = CIRCLE ( 'NONE', #295, 3.000000000000000444 ) ;
#257 = LINE ( 'NONE', #138, #59 ) ;
#258 = CARTESIAN_POINT ( 'NONE',  ( 0.000000000000000000, 0.000000000000000000, 503.0000000000000000 ) ) ;
#259 = DIRECTION ( 'NONE',  ( -1.000000000000000000, 0.000000000000000000, 0.000000000000000000 ) ) ;
#260 = APPROVAL ( #241, 'NEURÈENÝ' ) ;
#261 = DIRECTION ( 'NONE',  ( 0.000000000000000000, 0.000000000000000000, 1.000000000000000000 ) ) ;
#262 = CLOSED_SHELL ( 'NONE', ( #158, #221, #96, #226, #178, #53, #60, #230, #151 ) ) ;
#263 = TOROIDAL_SURFACE ( 'NONE', #88, 1.800000000000000266, 0.2000000000000000111 ) ;
#264 = ORIENTED_EDGE ( 'NONE', *, *, #238, .T. ) ;
#265 = SECURITY_CLASSIFICATION_LEVEL ( 'unclassified' ) ;
#266 = ORIENTED_EDGE ( 'NONE', *, *, #171, .F. ) ;
#267 = AXIS2_PLACEMENT_3D ( 'NONE', #136, #108, #134 ) ;
#268 = APPROVAL_ROLE ( '' ) ;
#269 = ORIENTED_EDGE ( 'NONE', *, *, #189, .T. ) ;
#270 = ORIENTED_EDGE ( 'NONE', *, *, #250, .T. ) ;
#271 = EDGE_LOOP ( 'NONE', ( #4, #266, #105, #30 ) ) ;
#272 = APPROVAL_PERSON_ORGANIZATION ( #291, #144, #173 ) ;
#273 = FACE_BOUND ( 'NONE', #236, .T. ) ;
#274 = FACE_OUTER_BOUND ( 'NONE', #247, .T. ) ;
#275 = APPROVAL ( #51, 'NEURÈENÝ' ) ;
#276 = CARTESIAN_POINT ( 'NONE',  ( 0.000000000000000000, 0.000000000000000000, 0.000000000000000000 ) ) ;
#277 = CYLINDRICAL_SURFACE ( 'NONE', #237, 1.600000000000000089 ) ;
#278 = CC_DESIGN_PERSON_AND_ORGANIZATION_ASSIGNMENT ( #71, #97, ( #175 ) ) ;
#279 = CARTESIAN_POINT ( 'NONE',  ( 0.000000000000000000, 0.000000000000000000, 0.000000000000000000 ) ) ;
#280 = CARTESIAN_POINT ( 'NONE',  ( 1.600000000000000089, 1.959434878635765230E-16, 503.0000000000000000 ) ) ;
#281 = AXIS2_PLACEMENT_3D ( 'NONE', #109, #248, #61 ) ;
#282 = LINE ( 'NONE', #231, #304 ) ;
#283 = CARTESIAN_POINT ( 'NONE',  ( 0.000000000000000000, 0.000000000000000000, 503.0000000000000000 ) ) ;
#284 = CARTESIAN_POINT ( 'NONE',  ( 1.600000000000000089, 1.959434878635765230E-16, 3.199999999999980638 ) ) ;
#285 = LOCAL_TIME ( 12, 12, 52.00000000000000000, #32 ) ;
#286 = EDGE_CURVE ( 'NONE', #149, #128, #81, .T. ) ;
#287 = PERSON_AND_ORGANIZATION ( #18, #224 ) ;
#288 = EDGE_LOOP ( 'NONE', ( #214, #196, #245, #153 ) ) ;
#289 = DIRECTION ( 'NONE',  ( 0.000000000000000000, 0.000000000000000000, 1.000000000000000000 ) ) ;
#290 = VERTEX_POINT ( 'NONE', #207 ) ;
#291 = PERSON_AND_ORGANIZATION ( #18, #224 ) ;
#292 = EDGE_LOOP ( 'NONE', ( #7, #270 ) ) ;
#293 = ORIENTED_EDGE ( 'NONE', *, *, #244, .F. ) ;
#294 = DIRECTION ( 'NONE',  ( 1.000000000000000000, 0.000000000000000000, 0.000000000000000000 ) ) ;
#295 = AXIS2_PLACEMENT_3D ( 'NONE', #157, #302, #13 ) ;
#296 = CARTESIAN_POINT ( 'NONE',  ( 0.000000000000000000, 0.000000000000000000, 3.000000000000000000 ) ) ;
#297 = APPLICATION_CONTEXT ( 'configuration controlled 3d designs of mechanical parts and assemblies' ) ;
#298 = ORIENTED_EDGE ( 'NONE', *, *, #300, .T. ) ;
#299 = CARTESIAN_POINT ( 'NONE',  ( -3.000000000000000444, 0.000000000000000000, 0.000000000000000000 ) ) ;
#300 = EDGE_CURVE ( 'NONE', #54, #98, #257, .T. ) ;
#301 = AXIS2_PLACEMENT_3D ( 'NONE', #276, #56, #15 ) ;
#302 = DIRECTION ( 'NONE',  ( 0.000000000000000000, 0.000000000000000000, 1.000000000000000000 ) ) ;
#303 = CARTESIAN_POINT ( 'NONE',  ( 3.000000000000000444, 3.673940397442060361E-16, 3.000000000000000000 ) ) ;
#304 = VECTOR ( 'NONE', #306, 1000.000000000000000 ) ;
#305 = FACE_OUTER_BOUND ( 'NONE', #292, .T. ) ;
#306 = DIRECTION ( 'NONE',  ( -0.000000000000000000, -0.000000000000000000, -1.000000000000000000 ) ) ;
#307 = DIRECTION ( 'NONE',  ( -0.000000000000000000, -0.000000000000000000, -1.000000000000000000 ) ) ;
ENDSEC;
END-ISO-10303-21;
