ISO-10303-21;
HEADER;
FILE_DESCRIPTION (( 'STEP AP203' ),
    '1' );
FILE_NAME ('b15a.STEP',
    '2022-06-20T09:35:29',
    ( '' ),
    ( '' ),
    'SwSTEP 2.0',
    'SolidWorks 2019',
    '' );
FILE_SCHEMA (( 'CONFIG_CONTROL_DESIGN' ));
ENDSEC;

DATA;
#1 = CARTESIAN_POINT ( 'NONE',  ( 5.500000000000000000, 6.735557395310442023E-16, 320.0000000000000000 ) ) ;
#2 = AXIS2_PLACEMENT_3D ( 'NONE', #107, #269, #240 ) ;
#3 = CARTESIAN_POINT ( 'NONE',  ( 0.000000000000000000, 0.000000000000000000, 0.000000000000000000 ) ) ;
#4 = EDGE_CURVE ( 'NONE', #174, #224, #77, .T. ) ;
#5 = DIRECTION ( 'NONE',  ( 0.000000000000000000, 0.000000000000000000, 1.000000000000000000 ) ) ;
#6 = APPLICATION_CONTEXT ( 'configuration controlled 3d designs of mechanical parts and assemblies' ) ;
#7 = DIRECTION ( 'NONE',  ( 0.000000000000000000, 0.000000000000000000, -1.000000000000000000 ) ) ;
#8 =( GEOMETRIC_REPRESENTATION_CONTEXT ( 3 ) GLOBAL_UNCERTAINTY_ASSIGNED_CONTEXT ( ( #251 ) ) GLOBAL_UNIT_ASSIGNED_CONTEXT ( ( #194, #175, #265 ) ) REPRESENTATION_CONTEXT ( 'NONE', 'WORKASPACE' ) );
#9 = COORDINATED_UNIVERSAL_TIME_OFFSET ( 1, 0, .AHEAD. ) ;
#10 = MANIFOLD_SOLID_BREP ( 'Zaoblit1', #291 ) ;
#11 = PERSON_AND_ORGANIZATION ( #235, #29 ) ;
#12 = ORIENTED_EDGE ( 'NONE', *, *, #178, .T. ) ;
#13 = EDGE_LOOP ( 'NONE', ( #15, #156 ) ) ;
#14 = SECURITY_CLASSIFICATION ( '', '', #59 ) ;
#15 = ORIENTED_EDGE ( 'NONE', *, *, #132, .T. ) ;
#16 = EDGE_CURVE ( 'NONE', #255, #41, #19, .T. ) ;
#17 = EDGE_CURVE ( 'NONE', #118, #254, #177, .T. ) ;
#18 = ORIENTED_EDGE ( 'NONE', *, *, #225, .T. ) ;
#19 = LINE ( 'NONE', #209, #31 ) ;
#20 = CIRCLE ( 'NONE', #40, 5.699999999999999289 ) ;
#21 = CARTESIAN_POINT ( 'NONE',  ( -5.699999999999999289, 6.980486755139912122E-16, 5.199999999999982414 ) ) ;
#22 = CARTESIAN_POINT ( 'NONE',  ( 0.000000000000000000, 0.000000000000000000, 5.199999999999982414 ) ) ;
#23 = DIRECTION ( 'NONE',  ( 1.224646799147353207E-16, 1.000000000000000000, -0.000000000000000000 ) ) ;
#24 = CIRCLE ( 'NONE', #198, 5.500000000000000000 ) ;
#25 = CIRCLE ( 'NONE', #100, 5.699999999999999289 ) ;
#26 = DIRECTION ( 'NONE',  ( 0.000000000000000000, 0.000000000000000000, 1.000000000000000000 ) ) ;
#27 = DIRECTION ( 'NONE',  ( 1.000000000000000000, 0.000000000000000000, -0.000000000000000000 ) ) ;
#28 = CC_DESIGN_PERSON_AND_ORGANIZATION_ASSIGNMENT ( #87, #248, ( #14 ) ) ;
#29 = ORGANIZATION ( 'NEURÈENÝ', 'NEURÈENÝ', '' ) ;
#30 = APPROVAL_ROLE ( '' ) ;
#31 = VECTOR ( 'NONE', #206, 1000.000000000000000 ) ;
#32 = APPLICATION_PROTOCOL_DEFINITION ( 'international standard', 'config_control_design', 1994, #6 ) ;
#33 = EDGE_CURVE ( 'NONE', #139, #255, #24, .T. ) ;
#34 = DATE_AND_TIME ( #223, #220 ) ;
#35 = ORIENTED_EDGE ( 'NONE', *, *, #4, .F. ) ;
#36 = EDGE_LOOP ( 'NONE', ( #83, #276, #12, #180 ) ) ;
#37 = APPROVAL_STATUS ( 'not_yet_approved' ) ;
#38 = EDGE_CURVE ( 'NONE', #254, #118, #61, .T. ) ;
#39 = DIRECTION ( 'NONE',  ( 1.000000000000000000, 0.000000000000000000, 0.000000000000000000 ) ) ;
#40 = AXIS2_PLACEMENT_3D ( 'NONE', #47, #303, #73 ) ;
#41 = VERTEX_POINT ( 'NONE', #238 ) ;
#42 = EDGE_LOOP ( 'NONE', ( #35, #207, #227, #143 ) ) ;
#43 = DIRECTION ( 'NONE',  ( 0.000000000000000000, 0.000000000000000000, 1.000000000000000000 ) ) ;
#44 = CIRCLE ( 'NONE', #85, 0.1999999999999996503 ) ;
#45 = FACE_OUTER_BOUND ( 'NONE', #36, .T. ) ;
#46 = DIRECTION ( 'NONE',  ( -1.000000000000000000, 1.224646799147353454E-16, 0.000000000000000000 ) ) ;
#47 = CARTESIAN_POINT ( 'NONE',  ( 0.000000000000000000, 0.000000000000000000, 5.000000000000000000 ) ) ;
#48 = CARTESIAN_POINT ( 'NONE',  ( 0.000000000000000000, 0.000000000000000000, 5.000000000000000000 ) ) ;
#49 = DESIGN_CONTEXT ( 'detailed design', #6, 'design' ) ;
#50 = CARTESIAN_POINT ( 'NONE',  ( 0.000000000000000000, 0.000000000000000000, 320.0000000000000000 ) ) ;
#51 = DIRECTION ( 'NONE',  ( 0.000000000000000000, 0.000000000000000000, 1.000000000000000000 ) ) ;
#52 = APPROVAL_PERSON_ORGANIZATION ( #252, #146, #138 ) ;
#53 = ORIENTED_EDGE ( 'NONE', *, *, #123, .F. ) ;
#54 = CARTESIAN_POINT ( 'NONE',  ( 0.000000000000000000, 0.000000000000000000, 0.000000000000000000 ) ) ;
#55 = CC_DESIGN_DATE_AND_TIME_ASSIGNMENT ( #34, #272, ( #221 ) ) ;
#56 = ORIENTED_EDGE ( 'NONE', *, *, #212, .F. ) ;
#57 = VECTOR ( 'NONE', #210, 1000.000000000000000 ) ;
#58 = EDGE_CURVE ( 'NONE', #224, #174, #262, .T. ) ;
#59 = SECURITY_CLASSIFICATION_LEVEL ( 'unclassified' ) ;
#60 = CARTESIAN_POINT ( 'NONE',  ( 0.000000000000000000, 0.000000000000000000, 320.0000000000000000 ) ) ;
#61 = CIRCLE ( 'NONE', #236, 8.000000000000000000 ) ;
#62 = DATE_AND_TIME ( #90, #191 ) ;
#63 = VERTEX_POINT ( 'NONE', #126 ) ;
#64 = CIRCLE ( 'NONE', #129, 5.500000000000000000 ) ;
#65 = COORDINATED_UNIVERSAL_TIME_OFFSET ( 1, 0, .AHEAD. ) ;
#66 = DIRECTION ( 'NONE',  ( 0.000000000000000000, 0.000000000000000000, 1.000000000000000000 ) ) ;
#67 = FACE_OUTER_BOUND ( 'NONE', #42, .T. ) ;
#68 = AXIS2_PLACEMENT_3D ( 'NONE', #214, #301, #211 ) ;
#69 = APPROVAL_PERSON_ORGANIZATION ( #184, #106, #277 ) ;
#70 = DIRECTION ( 'NONE',  ( 1.000000000000000000, 0.000000000000000000, 0.000000000000000000 ) ) ;
#71 = ADVANCED_FACE ( 'NONE', ( #192 ), #285, .T. ) ;
#72 = DIRECTION ( 'NONE',  ( 1.000000000000000000, 0.000000000000000000, 0.000000000000000000 ) ) ;
#73 = DIRECTION ( 'NONE',  ( 1.000000000000000000, 0.000000000000000000, 0.000000000000000000 ) ) ;
#74 = AXIS2_PLACEMENT_3D ( 'NONE', #286, #127, #93 ) ;
#75 = CIRCLE ( 'NONE', #217, 5.500000000000000000 ) ;
#76 = APPROVAL_DATE_TIME ( #99, #297 ) ;
#77 = CIRCLE ( 'NONE', #250, 8.000000000000000000 ) ;
#78 = CARTESIAN_POINT ( 'NONE',  ( -5.500000000000000000, 0.000000000000000000, 320.0000000000000000 ) ) ;
#79 = VERTEX_POINT ( 'NONE', #94 ) ;
#80 = DIRECTION ( 'NONE',  ( -0.000000000000000000, -0.000000000000000000, -1.000000000000000000 ) ) ;
#81 = ADVANCED_FACE ( 'NONE', ( #305 ), #237, .F. ) ;
#82 = PERSON_AND_ORGANIZATION_ROLE ( 'creator' ) ;
#83 = ORIENTED_EDGE ( 'NONE', *, *, #86, .F. ) ;
#84 = ORIENTED_EDGE ( 'NONE', *, *, #168, .F. ) ;
#85 = AXIS2_PLACEMENT_3D ( 'NONE', #288, #172, #7 ) ;
#86 = EDGE_CURVE ( 'NONE', #174, #254, #261, .T. ) ;
#87 = PERSON_AND_ORGANIZATION ( #235, #29 ) ;
#88 = EDGE_LOOP ( 'NONE', ( #89, #246 ) ) ;
#89 = ORIENTED_EDGE ( 'NONE', *, *, #168, .T. ) ;
#90 = CALENDAR_DATE ( 2022, 20, 6 ) ;
#91 = EDGE_LOOP ( 'NONE', ( #296, #157 ) ) ;
#92 = ADVANCED_FACE ( 'NONE', ( #67 ), #302, .T. ) ;
#93 = DIRECTION ( 'NONE',  ( -1.000000000000000000, 0.000000000000000000, 0.000000000000000000 ) ) ;
#94 = CARTESIAN_POINT ( 'NONE',  ( 5.699999999999999289, 0.000000000000000000, 4.999999999999991118 ) ) ;
#95 = CARTESIAN_POINT ( 'NONE',  ( 8.000000000000000000, 9.797174393178825657E-16, 5.000000000000000000 ) ) ;
#96 = AXIS2_PLACEMENT_3D ( 'NONE', #122, #239, #27 ) ;
#97 = DIRECTION ( 'NONE',  ( 1.000000000000000000, 0.000000000000000000, 0.000000000000000000 ) ) ;
#98 = CARTESIAN_POINT ( 'NONE',  ( 0.000000000000000000, 0.000000000000000000, 5.000000000000000000 ) ) ;
#99 = DATE_AND_TIME ( #307, #187 ) ;
#100 = AXIS2_PLACEMENT_3D ( 'NONE', #98, #193, #72 ) ;
#101 = FACE_OUTER_BOUND ( 'NONE', #115, .T. ) ;
#102 = PRODUCT ( 'b15a', 'b15a', '', ( #151 ) ) ;
#103 = DIRECTION ( 'NONE',  ( -0.000000000000000000, -0.000000000000000000, -1.000000000000000000 ) ) ;
#104 = CYLINDRICAL_SURFACE ( 'NONE', #253, 5.500000000000000000 ) ;
#105 = AXIS2_PLACEMENT_3D ( 'NONE', #21, #23, #46 ) ;
#106 = APPROVAL ( #247, 'NEURÈENÝ' ) ;
#107 = CARTESIAN_POINT ( 'NONE',  ( 0.000000000000000000, 0.000000000000000000, 5.199999999999982414 ) ) ;
#108 = DATE_AND_TIME ( #202, #114 ) ;
#109 = DATE_TIME_ROLE ( 'classification_date' ) ;
#110 = CC_DESIGN_DATE_AND_TIME_ASSIGNMENT ( #62, #109, ( #14 ) ) ;
#111 = ORIENTED_EDGE ( 'NONE', *, *, #225, .F. ) ;
#112 = VECTOR ( 'NONE', #189, 1000.000000000000000 ) ;
#113 = ORIENTED_EDGE ( 'NONE', *, *, #289, .F. ) ;
#114 = LOCAL_TIME ( 11, 35, 29.00000000000000000, #65 ) ;
#115 = EDGE_LOOP ( 'NONE', ( #274, #204, #229, #249 ) ) ;
#116 = CARTESIAN_POINT ( 'NONE',  ( 0.000000000000000000, 0.000000000000000000, 0.000000000000000000 ) ) ;
#117 = CC_DESIGN_PERSON_AND_ORGANIZATION_ASSIGNMENT ( #173, #243, ( #102 ) ) ;
#118 = VERTEX_POINT ( 'NONE', #304 ) ;
#119 = AXIS2_PLACEMENT_3D ( 'NONE', #50, #241, #290 ) ;
#120 = APPLICATION_CONTEXT ( 'configuration controlled 3d designs of mechanical parts and assemblies' ) ;
#121 = CARTESIAN_POINT ( 'NONE',  ( 8.000000000000000000, 9.797174393178825657E-16, 5.000000000000000000 ) ) ;
#122 = CARTESIAN_POINT ( 'NONE',  ( 0.000000000000000000, 0.000000000000000000, 320.0000000000000000 ) ) ;
#123 = EDGE_CURVE ( 'NONE', #41, #186, #281, .T. ) ;
#124 = ADVANCED_BREP_SHAPE_REPRESENTATION ( 'b15a', ( #10, #164 ), #8 ) ;
#125 = DIRECTION ( 'NONE',  ( 1.000000000000000000, 0.000000000000000000, -0.000000000000000000 ) ) ;
#126 = CARTESIAN_POINT ( 'NONE',  ( 5.500000000000000000, 6.735557395310442023E-16, 5.199999999999982414 ) ) ;
#127 = DIRECTION ( 'NONE',  ( -0.000000000000000000, -0.000000000000000000, -1.000000000000000000 ) ) ;
#128 = ADVANCED_FACE ( 'NONE', ( #188, #165 ), #234, .T. ) ;
#129 = AXIS2_PLACEMENT_3D ( 'NONE', #148, #131, #218 ) ;
#130 = CARTESIAN_POINT ( 'NONE',  ( 8.000000000000000000, 9.797174393178825657E-16, 0.000000000000000000 ) ) ;
#131 = DIRECTION ( 'NONE',  ( 0.000000000000000000, 0.000000000000000000, 1.000000000000000000 ) ) ;
#132 = EDGE_CURVE ( 'NONE', #255, #139, #154, .T. ) ;
#133 = DIRECTION ( 'NONE',  ( -1.000000000000000000, 0.000000000000000000, 0.000000000000000000 ) ) ;
#134 = AXIS2_PLACEMENT_3D ( 'NONE', #167, #263, #162 ) ;
#135 = ORIENTED_EDGE ( 'NONE', *, *, #123, .T. ) ;
#136 = PERSON_AND_ORGANIZATION_ROLE ( 'design_supplier' ) ;
#137 = ORIENTED_EDGE ( 'NONE', *, *, #287, .F. ) ;
#138 = APPROVAL_ROLE ( '' ) ;
#139 = VERTEX_POINT ( 'NONE', #259 ) ;
#140 = AXIS2_PLACEMENT_3D ( 'NONE', #54, #5, #155 ) ;
#141 = CC_DESIGN_SECURITY_CLASSIFICATION ( #14, ( #213 ) ) ;
#142 = ORIENTED_EDGE ( 'NONE', *, *, #38, .F. ) ;
#143 = ORIENTED_EDGE ( 'NONE', *, *, #178, .F. ) ;
#144 = CARTESIAN_POINT ( 'NONE',  ( -8.000000000000000000, 0.000000000000000000, 5.000000000000000000 ) ) ;
#145 = AXIS2_PLACEMENT_3D ( 'NONE', #279, #26, #125 ) ;
#146 = APPROVAL ( #37, 'NEURÈENÝ' ) ;
#147 = LINE ( 'NONE', #144, #57 ) ;
#148 = CARTESIAN_POINT ( 'NONE',  ( 0.000000000000000000, 0.000000000000000000, 5.199999999999982414 ) ) ;
#149 = DIRECTION ( 'NONE',  ( 1.000000000000000000, 0.000000000000000000, 0.000000000000000000 ) ) ;
#150 = CARTESIAN_POINT ( 'NONE',  ( 0.000000000000000000, 0.000000000000000000, 0.000000000000000000 ) ) ;
#151 = MECHANICAL_CONTEXT ( 'NONE', #120, 'mechanical' ) ;
#152 = DIRECTION ( 'NONE',  ( 1.000000000000000000, 0.000000000000000000, 0.000000000000000000 ) ) ;
#153 = EDGE_CURVE ( 'NONE', #186, #79, #25, .T. ) ;
#154 = CIRCLE ( 'NONE', #300, 5.500000000000000000 ) ;
#155 = DIRECTION ( 'NONE',  ( 1.000000000000000000, 0.000000000000000000, -0.000000000000000000 ) ) ;
#156 = ORIENTED_EDGE ( 'NONE', *, *, #33, .T. ) ;
#157 = ORIENTED_EDGE ( 'NONE', *, *, #4, .T. ) ;
#158 = SHAPE_DEFINITION_REPRESENTATION ( #216, #124 ) ;
#159 = CC_DESIGN_PERSON_AND_ORGANIZATION_ASSIGNMENT ( #245, #294, ( #221 ) ) ;
#160 = ORIENTED_EDGE ( 'NONE', *, *, #289, .T. ) ;
#161 = EDGE_LOOP ( 'NONE', ( #53, #56, #160, #299 ) ) ;
#162 = DIRECTION ( 'NONE',  ( 1.000000000000000000, 0.000000000000000000, 0.000000000000000000 ) ) ;
#163 = DIRECTION ( 'NONE',  ( 1.000000000000000000, 0.000000000000000000, 0.000000000000000000 ) ) ;
#164 = AXIS2_PLACEMENT_3D ( 'NONE', #3, #51, #152 ) ;
#165 = FACE_OUTER_BOUND ( 'NONE', #91, .T. ) ;
#166 = DIRECTION ( 'NONE',  ( -0.000000000000000000, -0.000000000000000000, -1.000000000000000000 ) ) ;
#167 = CARTESIAN_POINT ( 'NONE',  ( 0.000000000000000000, 0.000000000000000000, 5.000000000000000000 ) ) ;
#168 = EDGE_CURVE ( 'NONE', #79, #186, #20, .T. ) ;
#169 = AXIS2_PLACEMENT_3D ( 'NONE', #48, #166, #232 ) ;
#170 = PLANE ( 'NONE',  #140 ) ;
#171 = PRODUCT_RELATED_PRODUCT_CATEGORY ( 'detail', '', ( #102 ) ) ;
#172 = DIRECTION ( 'NONE',  ( 0.000000000000000000, -1.000000000000000000, 0.000000000000000000 ) ) ;
#173 = PERSON_AND_ORGANIZATION ( #235, #29 ) ;
#174 = VERTEX_POINT ( 'NONE', #121 ) ;
#175 =( NAMED_UNIT ( * ) PLANE_ANGLE_UNIT ( ) SI_UNIT ( $, .RADIAN. ) );
#176 = EDGE_LOOP ( 'NONE', ( #111, #135, #84, #113 ) ) ;
#177 = CIRCLE ( 'NONE', #200, 8.000000000000000000 ) ;
#178 = EDGE_CURVE ( 'NONE', #224, #118, #147, .T. ) ;
#179 = VECTOR ( 'NONE', #103, 1000.000000000000000 ) ;
#180 = ORIENTED_EDGE ( 'NONE', *, *, #17, .T. ) ;
#181 = CALENDAR_DATE ( 2022, 20, 6 ) ;
#182 = DIRECTION ( 'NONE',  ( 0.000000000000000000, 0.000000000000000000, 1.000000000000000000 ) ) ;
#183 = ADVANCED_FACE ( 'NONE', ( #45 ), #190, .T. ) ;
#184 = PERSON_AND_ORGANIZATION ( #235, #29 ) ;
#185 = EDGE_LOOP ( 'NONE', ( #137, #273, #293, #18 ) ) ;
#186 = VERTEX_POINT ( 'NONE', #233 ) ;
#187 = LOCAL_TIME ( 11, 35, 29.00000000000000000, #215 ) ;
#188 = FACE_BOUND ( 'NONE', #88, .T. ) ;
#189 = DIRECTION ( 'NONE',  ( -0.000000000000000000, -0.000000000000000000, -1.000000000000000000 ) ) ;
#190 = CYLINDRICAL_SURFACE ( 'NONE', #169, 8.000000000000000000 ) ;
#191 = LOCAL_TIME ( 11, 35, 29.00000000000000000, #222 ) ;
#192 = FACE_OUTER_BOUND ( 'NONE', #13, .T. ) ;
#193 = DIRECTION ( 'NONE',  ( -0.000000000000000000, -0.000000000000000000, -1.000000000000000000 ) ) ;
#194 =( LENGTH_UNIT ( ) NAMED_UNIT ( * ) SI_UNIT ( .MILLI., .METRE. ) );
#195 = LOCAL_TIME ( 11, 35, 29.00000000000000000, #9 ) ;
#196 = PERSON_AND_ORGANIZATION ( #235, #29 ) ;
#197 = APPLICATION_PROTOCOL_DEFINITION ( 'international standard', 'config_control_design', 1994, #120 ) ;
#198 = AXIS2_PLACEMENT_3D ( 'NONE', #60, #280, #163 ) ;
#199 = CYLINDRICAL_SURFACE ( 'NONE', #119, 5.500000000000000000 ) ;
#200 = AXIS2_PLACEMENT_3D ( 'NONE', #116, #208, #278 ) ;
#201 = CARTESIAN_POINT ( 'NONE',  ( 0.000000000000000000, 0.000000000000000000, 320.0000000000000000 ) ) ;
#202 = CALENDAR_DATE ( 2022, 20, 6 ) ;
#203 = PERSON_AND_ORGANIZATION ( #235, #29 ) ;
#204 = ORIENTED_EDGE ( 'NONE', *, *, #287, .T. ) ;
#205 = CC_DESIGN_APPROVAL ( #297, ( #221 ) ) ;
#206 = DIRECTION ( 'NONE',  ( -0.000000000000000000, -0.000000000000000000, -1.000000000000000000 ) ) ;
#207 = ORIENTED_EDGE ( 'NONE', *, *, #86, .T. ) ;
#208 = DIRECTION ( 'NONE',  ( 0.000000000000000000, 0.000000000000000000, 1.000000000000000000 ) ) ;
#209 = CARTESIAN_POINT ( 'NONE',  ( -5.500000000000000000, 0.000000000000000000, 320.0000000000000000 ) ) ;
#210 = DIRECTION ( 'NONE',  ( -0.000000000000000000, -0.000000000000000000, -1.000000000000000000 ) ) ;
#211 = DIRECTION ( 'NONE',  ( 1.000000000000000000, 0.000000000000000000, 0.000000000000000000 ) ) ;
#212 = EDGE_CURVE ( 'NONE', #63, #41, #75, .T. ) ;
#213 = PRODUCT_DEFINITION_FORMATION_WITH_SPECIFIED_SOURCE ( 'LIBOVOLNÝ', '', #102, .NOT_KNOWN. ) ;
#214 = CARTESIAN_POINT ( 'NONE',  ( 0.000000000000000000, 0.000000000000000000, 5.199999999999982414 ) ) ;
#215 = COORDINATED_UNIVERSAL_TIME_OFFSET ( 1, 0, .AHEAD. ) ;
#216 = PRODUCT_DEFINITION_SHAPE ( 'NONE', 'NONE',  #221 ) ;
#217 = AXIS2_PLACEMENT_3D ( 'NONE', #22, #284, #70 ) ;
#218 = DIRECTION ( 'NONE',  ( 1.000000000000000000, 0.000000000000000000, 0.000000000000000000 ) ) ;
#219 = FACE_OUTER_BOUND ( 'NONE', #185, .T. ) ;
#220 = LOCAL_TIME ( 11, 35, 29.00000000000000000, #298 ) ;
#221 = PRODUCT_DEFINITION ( 'NEZNÁMÝ', '', #213, #49 ) ;
#222 = COORDINATED_UNIVERSAL_TIME_OFFSET ( 1, 0, .AHEAD. ) ;
#223 = CALENDAR_DATE ( 2022, 20, 6 ) ;
#224 = VERTEX_POINT ( 'NONE', #260 ) ;
#225 = EDGE_CURVE ( 'NONE', #41, #63, #64, .T. ) ;
#226 = ORIENTED_EDGE ( 'NONE', *, *, #17, .F. ) ;
#227 = ORIENTED_EDGE ( 'NONE', *, *, #38, .T. ) ;
#228 = APPROVAL_DATE_TIME ( #292, #146 ) ;
#229 = ORIENTED_EDGE ( 'NONE', *, *, #212, .T. ) ;
#230 = CARTESIAN_POINT ( 'NONE',  ( 0.000000000000000000, 0.000000000000000000, 5.000000000000000000 ) ) ;
#231 = ADVANCED_FACE ( 'NONE', ( #267 ), #258, .F. ) ;
#232 = DIRECTION ( 'NONE',  ( -1.000000000000000000, 0.000000000000000000, 0.000000000000000000 ) ) ;
#233 = CARTESIAN_POINT ( 'NONE',  ( -5.699999999999999289, 6.980486755139912122E-16, 4.999999999999991118 ) ) ;
#234 = PLANE ( 'NONE',  #145 ) ;
#235 = PERSON ( 'NEURÈENÝ', 'NEURÈENÝ', 'NEURÈENÝ', ('NEURÈENÝ'), ('NEURÈENÝ'), ('NEURÈENÝ') ) ;
#236 = AXIS2_PLACEMENT_3D ( 'NONE', #150, #66, #149 ) ;
#237 = TOROIDAL_SURFACE ( 'NONE', #68, 5.699999999999999289, 0.2000000000000000111 ) ;
#238 = CARTESIAN_POINT ( 'NONE',  ( -5.500000000000000000, 0.000000000000000000, 5.199999999999982414 ) ) ;
#239 = DIRECTION ( 'NONE',  ( 0.000000000000000000, 0.000000000000000000, 1.000000000000000000 ) ) ;
#240 = DIRECTION ( 'NONE',  ( 1.000000000000000000, 0.000000000000000000, 0.000000000000000000 ) ) ;
#241 = DIRECTION ( 'NONE',  ( -0.000000000000000000, -0.000000000000000000, -1.000000000000000000 ) ) ;
#242 = APPROVAL_STATUS ( 'not_yet_approved' ) ;
#243 = PERSON_AND_ORGANIZATION_ROLE ( 'design_owner' ) ;
#244 = APPROVAL_PERSON_ORGANIZATION ( #196, #297, #30 ) ;
#245 = PERSON_AND_ORGANIZATION ( #235, #29 ) ;
#246 = ORIENTED_EDGE ( 'NONE', *, *, #153, .T. ) ;
#247 = APPROVAL_STATUS ( 'not_yet_approved' ) ;
#248 = PERSON_AND_ORGANIZATION_ROLE ( 'classification_officer' ) ;
#249 = ORIENTED_EDGE ( 'NONE', *, *, #16, .F. ) ;
#250 = AXIS2_PLACEMENT_3D ( 'NONE', #230, #182, #39 ) ;
#251 = UNCERTAINTY_MEASURE_WITH_UNIT (LENGTH_MEASURE( 1.000000000000000082E-05 ), #194, 'distance_accuracy_value', 'NONE');
#252 = PERSON_AND_ORGANIZATION ( #235, #29 ) ;
#253 = AXIS2_PLACEMENT_3D ( 'NONE', #201, #80, #133 ) ;
#254 = VERTEX_POINT ( 'NONE', #130 ) ;
#255 = VERTEX_POINT ( 'NONE', #78 ) ;
#256 = CC_DESIGN_PERSON_AND_ORGANIZATION_ASSIGNMENT ( #11, #136, ( #213 ) ) ;
#257 = CARTESIAN_POINT ( 'NONE',  ( 0.000000000000000000, 0.000000000000000000, 320.0000000000000000 ) ) ;
#258 = TOROIDAL_SURFACE ( 'NONE', #2, 5.699999999999999289, 0.2000000000000000111 ) ;
#259 = CARTESIAN_POINT ( 'NONE',  ( 5.500000000000000000, 6.735557395310442023E-16, 320.0000000000000000 ) ) ;
#260 = CARTESIAN_POINT ( 'NONE',  ( -8.000000000000000000, 0.000000000000000000, 5.000000000000000000 ) ) ;
#261 = LINE ( 'NONE', #95, #112 ) ;
#262 = CIRCLE ( 'NONE', #134, 8.000000000000000000 ) ;
#263 = DIRECTION ( 'NONE',  ( 0.000000000000000000, 0.000000000000000000, 1.000000000000000000 ) ) ;
#264 = CC_DESIGN_APPROVAL ( #146, ( #14 ) ) ;
#265 =( NAMED_UNIT ( * ) SI_UNIT ( $, .STERADIAN. ) SOLID_ANGLE_UNIT ( ) );
#266 = FACE_OUTER_BOUND ( 'NONE', #295, .T. ) ;
#267 = FACE_OUTER_BOUND ( 'NONE', #176, .T. ) ;
#268 = ADVANCED_FACE ( 'NONE', ( #266 ), #170, .F. ) ;
#269 = DIRECTION ( 'NONE',  ( 0.000000000000000000, 0.000000000000000000, 1.000000000000000000 ) ) ;
#270 = ADVANCED_FACE ( 'NONE', ( #219 ), #104, .T. ) ;
#271 = LINE ( 'NONE', #1, #179 ) ;
#272 = DATE_TIME_ROLE ( 'creation_date' ) ;
#273 = ORIENTED_EDGE ( 'NONE', *, *, #132, .F. ) ;
#274 = ORIENTED_EDGE ( 'NONE', *, *, #33, .F. ) ;
#275 = APPROVAL_DATE_TIME ( #108, #106 ) ;
#276 = ORIENTED_EDGE ( 'NONE', *, *, #58, .F. ) ;
#277 = APPROVAL_ROLE ( '' ) ;
#278 = DIRECTION ( 'NONE',  ( 1.000000000000000000, 0.000000000000000000, 0.000000000000000000 ) ) ;
#279 = CARTESIAN_POINT ( 'NONE',  ( 0.000000000000000000, 0.000000000000000000, 5.000000000000000000 ) ) ;
#280 = DIRECTION ( 'NONE',  ( 0.000000000000000000, 0.000000000000000000, 1.000000000000000000 ) ) ;
#281 = CIRCLE ( 'NONE', #105, 0.1999999999999996503 ) ;
#282 = ADVANCED_FACE ( 'NONE', ( #101 ), #199, .T. ) ;
#283 = CC_DESIGN_APPROVAL ( #106, ( #213 ) ) ;
#284 = DIRECTION ( 'NONE',  ( 0.000000000000000000, 0.000000000000000000, 1.000000000000000000 ) ) ;
#285 = PLANE ( 'NONE',  #96 ) ;
#286 = CARTESIAN_POINT ( 'NONE',  ( 0.000000000000000000, 0.000000000000000000, 5.000000000000000000 ) ) ;
#287 = EDGE_CURVE ( 'NONE', #139, #63, #271, .T. ) ;
#288 = CARTESIAN_POINT ( 'NONE',  ( 5.699999999999999289, 0.000000000000000000, 5.199999999999982414 ) ) ;
#289 = EDGE_CURVE ( 'NONE', #63, #79, #44, .T. ) ;
#290 = DIRECTION ( 'NONE',  ( -1.000000000000000000, 0.000000000000000000, 0.000000000000000000 ) ) ;
#291 = CLOSED_SHELL ( 'NONE', ( #231, #282, #92, #183, #128, #268, #270, #71, #81 ) ) ;
#292 = DATE_AND_TIME ( #181, #195 ) ;
#293 = ORIENTED_EDGE ( 'NONE', *, *, #16, .T. ) ;
#294 = PERSON_AND_ORGANIZATION_ROLE ( 'creator' ) ;
#295 = EDGE_LOOP ( 'NONE', ( #226, #142 ) ) ;
#296 = ORIENTED_EDGE ( 'NONE', *, *, #58, .T. ) ;
#297 = APPROVAL ( #242, 'NEURÈENÝ' ) ;
#298 = COORDINATED_UNIVERSAL_TIME_OFFSET ( 1, 0, .AHEAD. ) ;
#299 = ORIENTED_EDGE ( 'NONE', *, *, #153, .F. ) ;
#300 = AXIS2_PLACEMENT_3D ( 'NONE', #257, #43, #97 ) ;
#301 = DIRECTION ( 'NONE',  ( 0.000000000000000000, 0.000000000000000000, 1.000000000000000000 ) ) ;
#302 = CYLINDRICAL_SURFACE ( 'NONE', #74, 8.000000000000000000 ) ;
#303 = DIRECTION ( 'NONE',  ( -0.000000000000000000, -0.000000000000000000, -1.000000000000000000 ) ) ;
#304 = CARTESIAN_POINT ( 'NONE',  ( -8.000000000000000000, 0.000000000000000000, 0.000000000000000000 ) ) ;
#305 = FACE_OUTER_BOUND ( 'NONE', #161, .T. ) ;
#306 = CC_DESIGN_PERSON_AND_ORGANIZATION_ASSIGNMENT ( #203, #82, ( #213 ) ) ;
#307 = CALENDAR_DATE ( 2022, 20, 6 ) ;
ENDSEC;
END-ISO-10303-21;
