ISO-10303-21;
HEADER;
FILE_DESCRIPTION (( 'STEP AP203' ),
    '1' );
FILE_NAME ('82ef.STEP',
    '2022-06-20T10:09:24',
    ( '' ),
    ( '' ),
    'SwSTEP 2.0',
    'SolidWorks 2019',
    '' );
FILE_SCHEMA (( 'CONFIG_CONTROL_DESIGN' ));
ENDSEC;

DATA;
#1 = CC_DESIGN_APPROVAL ( #81, ( #201 ) ) ;
#2 = EDGE_CURVE ( 'NONE', #54, #123, #51, .T. ) ;
#3 = ORIENTED_EDGE ( 'NONE', *, *, #79, .F. ) ;
#4 = PERSON_AND_ORGANIZATION_ROLE ( 'design_supplier' ) ;
#5 = DIRECTION ( 'NONE',  ( 1.000000000000000000, 0.000000000000000000, 0.000000000000000000 ) ) ;
#6 = UNCERTAINTY_MEASURE_WITH_UNIT (LENGTH_MEASURE( 1.000000000000000082E-05 ), #74, 'distance_accuracy_value', 'NONE');
#7 = EDGE_CURVE ( 'NONE', #234, #150, #127, .T. ) ;
#8 = DIRECTION ( 'NONE',  ( -0.000000000000000000, -0.000000000000000000, -1.000000000000000000 ) ) ;
#9 = DIRECTION ( 'NONE',  ( -1.000000000000000000, 1.224646799147353207E-16, 0.000000000000000000 ) ) ;
#10 = DIRECTION ( 'NONE',  ( -1.000000000000000000, 0.000000000000000000, 0.000000000000000000 ) ) ;
#11 = APPROVAL_STATUS ( 'not_yet_approved' ) ;
#12 = LINE ( 'NONE', #19, #16 ) ;
#13 = PERSON_AND_ORGANIZATION ( #122, #28 ) ;
#14 = FACE_OUTER_BOUND ( 'NONE', #186, .T. ) ;
#15 = AXIS2_PLACEMENT_3D ( 'NONE', #196, #200, #29 ) ;
#16 = VECTOR ( 'NONE', #159, 1000.000000000000000 ) ;
#17 = DATE_AND_TIME ( #283, #75 ) ;
#18 = PLANE ( 'NONE',  #156 ) ;
#19 = CARTESIAN_POINT ( 'NONE',  ( -4.000000000000000000, 0.000000000000000000, 3.000000000000000000 ) ) ;
#20 = EDGE_CURVE ( 'NONE', #261, #209, #22, .T. ) ;
#21 = ORIENTED_EDGE ( 'NONE', *, *, #63, .T. ) ;
#22 = CIRCLE ( 'NONE', #104, 4.000000000000000000 ) ;
#23 = VECTOR ( 'NONE', #8, 1000.000000000000000 ) ;
#24 = ORIENTED_EDGE ( 'NONE', *, *, #301, .F. ) ;
#25 = CC_DESIGN_PERSON_AND_ORGANIZATION_ASSIGNMENT ( #46, #256, ( #262 ) ) ;
#26 = MANIFOLD_SOLID_BREP ( 'Zaoblit1', #211 ) ;
#27 = ORIENTED_EDGE ( 'NONE', *, *, #71, .T. ) ;
#28 = ORGANIZATION ( 'NEURÈENÝ', 'NEURÈENÝ', '' ) ;
#29 = DIRECTION ( 'NONE',  ( -1.000000000000000000, 0.000000000000000000, 0.000000000000000000 ) ) ;
#30 = APPLICATION_CONTEXT ( 'configuration controlled 3d designs of mechanical parts and assemblies' ) ;
#31 = CARTESIAN_POINT ( 'NONE',  ( 0.000000000000000000, 0.000000000000000000, 0.000000000000000000 ) ) ;
#32 = PRODUCT_DEFINITION ( 'NEZNÁMÝ', '', #201, #190 ) ;
#33 = DATE_AND_TIME ( #277, #147 ) ;
#34 = DIRECTION ( 'NONE',  ( 1.000000000000000000, 0.000000000000000000, 0.000000000000000000 ) ) ;
#35 = DIRECTION ( 'NONE',  ( 0.000000000000000000, 0.000000000000000000, 1.000000000000000000 ) ) ;
#36 = COORDINATED_UNIVERSAL_TIME_OFFSET ( 1, 0, .AHEAD. ) ;
#37 = DIRECTION ( 'NONE',  ( 1.000000000000000000, 0.000000000000000000, -0.000000000000000000 ) ) ;
#38 = VECTOR ( 'NONE', #239, 1000.000000000000000 ) ;
#39 = CARTESIAN_POINT ( 'NONE',  ( 0.000000000000000000, 0.000000000000000000, 3.000000000000000000 ) ) ;
#40 = DATE_TIME_ROLE ( 'creation_date' ) ;
#41 = APPROVAL_DATE_TIME ( #225, #193 ) ;
#42 = ADVANCED_FACE ( 'NONE', ( #85 ), #174, .T. ) ;
#43 = DATE_TIME_ROLE ( 'classification_date' ) ;
#44 = DIRECTION ( 'NONE',  ( -1.000000000000000000, 0.000000000000000000, 0.000000000000000000 ) ) ;
#45 = LOCAL_TIME ( 12, 9, 24.00000000000000000, #87 ) ;
#46 = PERSON_AND_ORGANIZATION ( #122, #28 ) ;
#47 = CARTESIAN_POINT ( 'NONE',  ( 0.000000000000000000, 0.000000000000000000, 3.000000000000000000 ) ) ;
#48 = PRODUCT_DEFINITION_SHAPE ( 'NONE', 'NONE',  #32 ) ;
#49 = CARTESIAN_POINT ( 'NONE',  ( 2.000000000000000000, 2.449293598294706414E-16, 318.0000000000000000 ) ) ;
#50 = ORIENTED_EDGE ( 'NONE', *, *, #301, .T. ) ;
#51 = CIRCLE ( 'NONE', #116, 2.200000000000000178 ) ;
#52 = ORIENTED_EDGE ( 'NONE', *, *, #224, .F. ) ;
#53 = ORIENTED_EDGE ( 'NONE', *, *, #224, .T. ) ;
#54 = VERTEX_POINT ( 'NONE', #109 ) ;
#55 = AXIS2_PLACEMENT_3D ( 'NONE', #243, #173, #172 ) ;
#56 = DIRECTION ( 'NONE',  ( 0.000000000000000000, 0.000000000000000000, 1.000000000000000000 ) ) ;
#57 = CIRCLE ( 'NONE', #288, 4.000000000000000000 ) ;
#58 = APPROVAL_PERSON_ORGANIZATION ( #199, #81, #90 ) ;
#59 = PLANE ( 'NONE',  #118 ) ;
#60 = LINE ( 'NONE', #153, #38 ) ;
#61 = COORDINATED_UNIVERSAL_TIME_OFFSET ( 1, 0, .AHEAD. ) ;
#62 = CARTESIAN_POINT ( 'NONE',  ( 0.000000000000000000, 0.000000000000000000, 318.0000000000000000 ) ) ;
#63 = EDGE_CURVE ( 'NONE', #209, #261, #222, .T. ) ;
#64 = AXIS2_PLACEMENT_3D ( 'NONE', #198, #157, #221 ) ;
#65 = DIRECTION ( 'NONE',  ( -0.000000000000000000, -0.000000000000000000, -1.000000000000000000 ) ) ;
#66 = CARTESIAN_POINT ( 'NONE',  ( 0.000000000000000000, 0.000000000000000000, 0.000000000000000000 ) ) ;
#67 = DIRECTION ( 'NONE',  ( 0.000000000000000000, 0.000000000000000000, 1.000000000000000000 ) ) ;
#68 = CARTESIAN_POINT ( 'NONE',  ( -4.000000000000000000, 0.000000000000000000, 3.000000000000000000 ) ) ;
#69 = DIRECTION ( 'NONE',  ( 0.000000000000000000, 0.000000000000000000, 1.000000000000000000 ) ) ;
#70 = AXIS2_PLACEMENT_3D ( 'NONE', #179, #250, #281 ) ;
#71 = EDGE_CURVE ( 'NONE', #220, #229, #78, .T. ) ;
#72 = DIRECTION ( 'NONE',  ( 0.000000000000000000, 0.000000000000000000, 1.000000000000000000 ) ) ;
#73 = SHAPE_DEFINITION_REPRESENTATION ( #48, #137 ) ;
#74 =( LENGTH_UNIT ( ) NAMED_UNIT ( * ) SI_UNIT ( .MILLI., .METRE. ) );
#75 = LOCAL_TIME ( 12, 9, 24.00000000000000000, #226 ) ;
#76 = VERTEX_POINT ( 'NONE', #129 ) ;
#77 = ORIENTED_EDGE ( 'NONE', *, *, #20, .T. ) ;
#78 = CIRCLE ( 'NONE', #160, 4.000000000000000000 ) ;
#79 = EDGE_CURVE ( 'NONE', #261, #220, #194, .T. ) ;
#80 = ORIENTED_EDGE ( 'NONE', *, *, #7, .F. ) ;
#81 = APPROVAL ( #11, 'NEURÈENÝ' ) ;
#82 = DIRECTION ( 'NONE',  ( 1.000000000000000000, 0.000000000000000000, 0.000000000000000000 ) ) ;
#83 = DIRECTION ( 'NONE',  ( 0.000000000000000000, 0.000000000000000000, 1.000000000000000000 ) ) ;
#84 = DIRECTION ( 'NONE',  ( 0.000000000000000000, 0.000000000000000000, 1.000000000000000000 ) ) ;
#85 = FACE_OUTER_BOUND ( 'NONE', #306, .T. ) ;
#86 = APPLICATION_PROTOCOL_DEFINITION ( 'international standard', 'config_control_design', 1994, #103 ) ;
#87 = COORDINATED_UNIVERSAL_TIME_OFFSET ( 1, 0, .AHEAD. ) ;
#88 = ADVANCED_FACE ( 'NONE', ( #105 ), #275, .F. ) ;
#89 = DIRECTION ( 'NONE',  ( 1.000000000000000000, 0.000000000000000000, 0.000000000000000000 ) ) ;
#90 = APPROVAL_ROLE ( '' ) ;
#91 = LOCAL_TIME ( 12, 9, 24.00000000000000000, #36 ) ;
#92 = PLANE ( 'NONE',  #267 ) ;
#93 = COORDINATED_UNIVERSAL_TIME_OFFSET ( 1, 0, .AHEAD. ) ;
#94 = DIRECTION ( 'NONE',  ( 1.000000000000000000, 0.000000000000000000, -0.000000000000000000 ) ) ;
#95 = CC_DESIGN_APPROVAL ( #193, ( #262 ) ) ;
#96 = ORIENTED_EDGE ( 'NONE', *, *, #20, .F. ) ;
#97 = EDGE_LOOP ( 'NONE', ( #3, #233, #53, #176 ) ) ;
#98 = EDGE_CURVE ( 'NONE', #150, #123, #192, .T. ) ;
#99 = EDGE_LOOP ( 'NONE', ( #302, #304 ) ) ;
#100 = AXIS2_PLACEMENT_3D ( 'NONE', #39, #181, #10 ) ;
#101 = ORIENTED_EDGE ( 'NONE', *, *, #166, .T. ) ;
#102 = CARTESIAN_POINT ( 'NONE',  ( 0.000000000000000000, 0.000000000000000000, 318.0000000000000000 ) ) ;
#103 = APPLICATION_CONTEXT ( 'configuration controlled 3d designs of mechanical parts and assemblies' ) ;
#104 = AXIS2_PLACEMENT_3D ( 'NONE', #133, #84, #82 ) ;
#105 = FACE_OUTER_BOUND ( 'NONE', #146, .T. ) ;
#106 = EDGE_CURVE ( 'NONE', #76, #286, #260, .T. ) ;
#107 = DIRECTION ( 'NONE',  ( -0.000000000000000000, -0.000000000000000000, -1.000000000000000000 ) ) ;
#108 = FACE_OUTER_BOUND ( 'NONE', #259, .T. ) ;
#109 = CARTESIAN_POINT ( 'NONE',  ( -2.200000000000000178, 2.694222958124177006E-16, 2.999999999999990674 ) ) ;
#110 = PERSON_AND_ORGANIZATION_ROLE ( 'creator' ) ;
#111 = PERSON_AND_ORGANIZATION_ROLE ( 'design_owner' ) ;
#112 = FACE_OUTER_BOUND ( 'NONE', #168, .T. ) ;
#113 = CIRCLE ( 'NONE', #70, 2.200000000000000178 ) ;
#114 = ADVANCED_FACE ( 'NONE', ( #307 ), #59, .F. ) ;
#115 = FACE_OUTER_BOUND ( 'NONE', #97, .T. ) ;
#116 = AXIS2_PLACEMENT_3D ( 'NONE', #218, #107, #215 ) ;
#117 = ORIENTED_EDGE ( 'NONE', *, *, #145, .T. ) ;
#118 = AXIS2_PLACEMENT_3D ( 'NONE', #66, #155, #37 ) ;
#119 = APPROVAL_ROLE ( '' ) ;
#120 = EDGE_LOOP ( 'NONE', ( #237, #230 ) ) ;
#121 = EDGE_LOOP ( 'NONE', ( #210, #208 ) ) ;
#122 = PERSON ( 'NEURÈENÝ', 'NEURÈENÝ', 'NEURÈENÝ', ('NEURÈENÝ'), ('NEURÈENÝ'), ('NEURÈENÝ') ) ;
#123 = VERTEX_POINT ( 'NONE', #269 ) ;
#124 = TOROIDAL_SURFACE ( 'NONE', #64, 2.200000000000000178, 0.2000000000000000111 ) ;
#125 = CARTESIAN_POINT ( 'NONE',  ( 0.000000000000000000, 0.000000000000000000, 3.199999999999980638 ) ) ;
#126 = CARTESIAN_POINT ( 'NONE',  ( 2.000000000000000000, 2.449293598294706414E-16, 3.199999999999980638 ) ) ;
#127 = CIRCLE ( 'NONE', #287, 2.000000000000000000 ) ;
#128 = APPROVAL_DATE_TIME ( #33, #81 ) ;
#129 = CARTESIAN_POINT ( 'NONE',  ( 2.000000000000000000, 2.449293598294706414E-16, 318.0000000000000000 ) ) ;
#130 = PERSON_AND_ORGANIZATION_ROLE ( 'creator' ) ;
#131 = CARTESIAN_POINT ( 'NONE',  ( 0.000000000000000000, 0.000000000000000000, 0.000000000000000000 ) ) ;
#132 = PERSON_AND_ORGANIZATION ( #122, #28 ) ;
#133 = CARTESIAN_POINT ( 'NONE',  ( 0.000000000000000000, 0.000000000000000000, 3.000000000000000000 ) ) ;
#134 = APPROVAL_DATE_TIME ( #244, #135 ) ;
#135 = APPROVAL ( #247, 'NEURÈENÝ' ) ;
#136 = DIRECTION ( 'NONE',  ( -1.000000000000000000, 0.000000000000000000, 0.000000000000000000 ) ) ;
#137 = ADVANCED_BREP_SHAPE_REPRESENTATION ( '82ef', ( #26, #299 ), #216 ) ;
#138 = PERSON_AND_ORGANIZATION ( #122, #28 ) ;
#139 = CARTESIAN_POINT ( 'NONE',  ( 4.000000000000000000, 4.898587196589412829E-16, 0.000000000000000000 ) ) ;
#140 = CARTESIAN_POINT ( 'NONE',  ( -2.000000000000000000, 0.000000000000000000, 3.199999999999980638 ) ) ;
#141 = EDGE_CURVE ( 'NONE', #286, #76, #240, .T. ) ;
#142 = CARTESIAN_POINT ( 'NONE',  ( 4.000000000000000000, 4.898587196589412829E-16, 3.000000000000000000 ) ) ;
#143 =( NAMED_UNIT ( * ) SI_UNIT ( $, .STERADIAN. ) SOLID_ANGLE_UNIT ( ) );
#144 = ORIENTED_EDGE ( 'NONE', *, *, #170, .F. ) ;
#145 = EDGE_CURVE ( 'NONE', #286, #234, #60, .T. ) ;
#146 = EDGE_LOOP ( 'NONE', ( #300, #24, #264, #169 ) ) ;
#147 = LOCAL_TIME ( 12, 9, 24.00000000000000000, #61 ) ;
#148 = ORIENTED_EDGE ( 'NONE', *, *, #106, .F. ) ;
#149 = EDGE_CURVE ( 'NONE', #229, #220, #57, .T. ) ;
#150 = VERTEX_POINT ( 'NONE', #126 ) ;
#151 = ORIENTED_EDGE ( 'NONE', *, *, #79, .T. ) ;
#152 = DIRECTION ( 'NONE',  ( 0.000000000000000000, 0.000000000000000000, 1.000000000000000000 ) ) ;
#153 = CARTESIAN_POINT ( 'NONE',  ( -2.000000000000000000, 0.000000000000000000, 318.0000000000000000 ) ) ;
#154 = ADVANCED_FACE ( 'NONE', ( #108 ), #124, .F. ) ;
#155 = DIRECTION ( 'NONE',  ( 0.000000000000000000, 0.000000000000000000, 1.000000000000000000 ) ) ;
#156 = AXIS2_PLACEMENT_3D ( 'NONE', #227, #72, #274 ) ;
#157 = DIRECTION ( 'NONE',  ( 0.000000000000000000, 0.000000000000000000, 1.000000000000000000 ) ) ;
#158 = CARTESIAN_POINT ( 'NONE',  ( 0.000000000000000000, 0.000000000000000000, 3.199999999999980638 ) ) ;
#159 = DIRECTION ( 'NONE',  ( -0.000000000000000000, -0.000000000000000000, -1.000000000000000000 ) ) ;
#160 = AXIS2_PLACEMENT_3D ( 'NONE', #131, #83, #292 ) ;
#161 = FACE_OUTER_BOUND ( 'NONE', #231, .T. ) ;
#162 = CIRCLE ( 'NONE', #284, 0.2000000000000000944 ) ;
#163 = CALENDAR_DATE ( 2022, 20, 6 ) ;
#164 = FACE_OUTER_BOUND ( 'NONE', #121, .T. ) ;
#165 = CIRCLE ( 'NONE', #185, 2.000000000000000000 ) ;
#166 = EDGE_CURVE ( 'NONE', #234, #54, #162, .T. ) ;
#167 = CARTESIAN_POINT ( 'NONE',  ( -2.000000000000000000, 0.000000000000000000, 318.0000000000000000 ) ) ;
#168 = EDGE_LOOP ( 'NONE', ( #96, #151, #27, #52 ) ) ;
#169 = ORIENTED_EDGE ( 'NONE', *, *, #2, .F. ) ;
#170 = EDGE_CURVE ( 'NONE', #123, #54, #113, .T. ) ;
#171 = DIRECTION ( 'NONE',  ( 1.000000000000000000, 0.000000000000000000, 0.000000000000000000 ) ) ;
#172 = DIRECTION ( 'NONE',  ( 0.000000000000000000, 0.000000000000000000, -1.000000000000000000 ) ) ;
#173 = DIRECTION ( 'NONE',  ( 0.000000000000000000, -1.000000000000000000, 0.000000000000000000 ) ) ;
#174 = CYLINDRICAL_SURFACE ( 'NONE', #15, 2.000000000000000000 ) ;
#175 = AXIS2_PLACEMENT_3D ( 'NONE', #62, #214, #268 ) ;
#176 = ORIENTED_EDGE ( 'NONE', *, *, #149, .T. ) ;
#177 = APPROVAL_PERSON_ORGANIZATION ( #197, #135, #270 ) ;
#178 = CYLINDRICAL_SURFACE ( 'NONE', #100, 4.000000000000000000 ) ;
#179 = CARTESIAN_POINT ( 'NONE',  ( 0.000000000000000000, 0.000000000000000000, 3.000000000000000000 ) ) ;
#180 = CARTESIAN_POINT ( 'NONE',  ( 0.000000000000000000, 0.000000000000000000, 3.000000000000000000 ) ) ;
#181 = DIRECTION ( 'NONE',  ( -0.000000000000000000, -0.000000000000000000, -1.000000000000000000 ) ) ;
#182 = DIRECTION ( 'NONE',  ( -0.000000000000000000, -0.000000000000000000, -1.000000000000000000 ) ) ;
#183 = LOCAL_TIME ( 12, 9, 24.00000000000000000, #93 ) ;
#184 = CC_DESIGN_PERSON_AND_ORGANIZATION_ASSIGNMENT ( #132, #110, ( #32 ) ) ;
#185 = AXIS2_PLACEMENT_3D ( 'NONE', #158, #69, #89 ) ;
#186 = EDGE_LOOP ( 'NONE', ( #21, #77 ) ) ;
#187 = ADVANCED_FACE ( 'NONE', ( #164 ), #18, .T. ) ;
#188 = AXIS2_PLACEMENT_3D ( 'NONE', #125, #35, #271 ) ;
#189 = ORIENTED_EDGE ( 'NONE', *, *, #141, .F. ) ;
#190 = DESIGN_CONTEXT ( 'detailed design', #30, 'design' ) ;
#191 = DIRECTION ( 'NONE',  ( 1.000000000000000000, 0.000000000000000000, 0.000000000000000000 ) ) ;
#192 = CIRCLE ( 'NONE', #55, 0.2000000000000000944 ) ;
#193 = APPROVAL ( #278, 'NEURÈENÝ' ) ;
#194 = LINE ( 'NONE', #291, #23 ) ;
#195 = MECHANICAL_CONTEXT ( 'NONE', #103, 'mechanical' ) ;
#196 = CARTESIAN_POINT ( 'NONE',  ( 0.000000000000000000, 0.000000000000000000, 318.0000000000000000 ) ) ;
#197 = PERSON_AND_ORGANIZATION ( #122, #28 ) ;
#198 = CARTESIAN_POINT ( 'NONE',  ( 0.000000000000000000, 0.000000000000000000, 3.199999999999980638 ) ) ;
#199 = PERSON_AND_ORGANIZATION ( #122, #28 ) ;
#200 = DIRECTION ( 'NONE',  ( -0.000000000000000000, -0.000000000000000000, -1.000000000000000000 ) ) ;
#201 = PRODUCT_DEFINITION_FORMATION_WITH_SPECIFIED_SOURCE ( 'LIBOVOLNÝ', '', #252, .NOT_KNOWN. ) ;
#202 = CALENDAR_DATE ( 2022, 20, 6 ) ;
#203 = APPLICATION_PROTOCOL_DEFINITION ( 'international standard', 'config_control_design', 1994, #30 ) ;
#204 = CARTESIAN_POINT ( 'NONE',  ( -4.000000000000000000, 0.000000000000000000, 0.000000000000000000 ) ) ;
#205 = DIRECTION ( 'NONE',  ( 1.224646799147353207E-16, 1.000000000000000000, -0.000000000000000000 ) ) ;
#206 = DIRECTION ( 'NONE',  ( -0.000000000000000000, -0.000000000000000000, -1.000000000000000000 ) ) ;
#207 = ADVANCED_FACE ( 'NONE', ( #161 ), #245, .T. ) ;
#208 = ORIENTED_EDGE ( 'NONE', *, *, #106, .T. ) ;
#209 = VERTEX_POINT ( 'NONE', #68 ) ;
#210 = ORIENTED_EDGE ( 'NONE', *, *, #141, .T. ) ;
#211 = CLOSED_SHELL ( 'NONE', ( #154, #207, #303, #280, #236, #114, #42, #187, #88 ) ) ;
#212 = ORIENTED_EDGE ( 'NONE', *, *, #145, .F. ) ;
#213 = ORIENTED_EDGE ( 'NONE', *, *, #98, .F. ) ;
#214 = DIRECTION ( 'NONE',  ( 0.000000000000000000, 0.000000000000000000, 1.000000000000000000 ) ) ;
#215 = DIRECTION ( 'NONE',  ( 1.000000000000000000, 0.000000000000000000, 0.000000000000000000 ) ) ;
#216 =( GEOMETRIC_REPRESENTATION_CONTEXT ( 3 ) GLOBAL_UNCERTAINTY_ASSIGNED_CONTEXT ( ( #6 ) ) GLOBAL_UNIT_ASSIGNED_CONTEXT ( ( #74, #249, #143 ) ) REPRESENTATION_CONTEXT ( 'NONE', 'WORKASPACE' ) );
#217 = PERSON_AND_ORGANIZATION ( #122, #28 ) ;
#218 = CARTESIAN_POINT ( 'NONE',  ( 0.000000000000000000, 0.000000000000000000, 3.000000000000000000 ) ) ;
#219 = PERSON_AND_ORGANIZATION ( #122, #28 ) ;
#220 = VERTEX_POINT ( 'NONE', #139 ) ;
#221 = DIRECTION ( 'NONE',  ( 1.000000000000000000, 0.000000000000000000, 0.000000000000000000 ) ) ;
#222 = CIRCLE ( 'NONE', #296, 4.000000000000000000 ) ;
#223 = CC_DESIGN_SECURITY_CLASSIFICATION ( #262, ( #201 ) ) ;
#224 = EDGE_CURVE ( 'NONE', #209, #229, #12, .T. ) ;
#225 = DATE_AND_TIME ( #163, #183 ) ;
#226 = COORDINATED_UNIVERSAL_TIME_OFFSET ( 1, 0, .AHEAD. ) ;
#227 = CARTESIAN_POINT ( 'NONE',  ( 0.000000000000000000, 0.000000000000000000, 318.0000000000000000 ) ) ;
#228 = AXIS2_PLACEMENT_3D ( 'NONE', #47, #206, #136 ) ;
#229 = VERTEX_POINT ( 'NONE', #204 ) ;
#230 = ORIENTED_EDGE ( 'NONE', *, *, #71, .F. ) ;
#231 = EDGE_LOOP ( 'NONE', ( #148, #257, #50, #212 ) ) ;
#232 = CC_DESIGN_DATE_AND_TIME_ASSIGNMENT ( #17, #43, ( #262 ) ) ;
#233 = ORIENTED_EDGE ( 'NONE', *, *, #63, .F. ) ;
#234 = VERTEX_POINT ( 'NONE', #140 ) ;
#235 = AXIS2_PLACEMENT_3D ( 'NONE', #102, #152, #191 ) ;
#236 = ADVANCED_FACE ( 'NONE', ( #298, #14 ), #92, .T. ) ;
#237 = ORIENTED_EDGE ( 'NONE', *, *, #149, .F. ) ;
#238 = DIRECTION ( 'NONE',  ( 0.000000000000000000, 0.000000000000000000, 1.000000000000000000 ) ) ;
#239 = DIRECTION ( 'NONE',  ( -0.000000000000000000, -0.000000000000000000, -1.000000000000000000 ) ) ;
#240 = CIRCLE ( 'NONE', #235, 2.000000000000000000 ) ;
#241 = DIRECTION ( 'NONE',  ( 0.000000000000000000, 0.000000000000000000, 1.000000000000000000 ) ) ;
#242 = DIRECTION ( 'NONE',  ( 1.000000000000000000, 0.000000000000000000, 0.000000000000000000 ) ) ;
#243 = CARTESIAN_POINT ( 'NONE',  ( 2.200000000000000178, 0.000000000000000000, 3.199999999999980638 ) ) ;
#244 = DATE_AND_TIME ( #202, #91 ) ;
#245 = CYLINDRICAL_SURFACE ( 'NONE', #246, 2.000000000000000000 ) ;
#246 = AXIS2_PLACEMENT_3D ( 'NONE', #251, #182, #44 ) ;
#247 = APPROVAL_STATUS ( 'not_yet_approved' ) ;
#248 = CC_DESIGN_PERSON_AND_ORGANIZATION_ASSIGNMENT ( #217, #130, ( #201 ) ) ;
#249 =( NAMED_UNIT ( * ) PLANE_ANGLE_UNIT ( ) SI_UNIT ( $, .RADIAN. ) );
#250 = DIRECTION ( 'NONE',  ( -0.000000000000000000, -0.000000000000000000, -1.000000000000000000 ) ) ;
#251 = CARTESIAN_POINT ( 'NONE',  ( 0.000000000000000000, 0.000000000000000000, 318.0000000000000000 ) ) ;
#252 = PRODUCT ( '82ef', '82ef', '', ( #195 ) ) ;
#253 = CC_DESIGN_DATE_AND_TIME_ASSIGNMENT ( #290, #40, ( #32 ) ) ;
#254 = SECURITY_CLASSIFICATION_LEVEL ( 'unclassified' ) ;
#255 = CYLINDRICAL_SURFACE ( 'NONE', #228, 4.000000000000000000 ) ;
#256 = PERSON_AND_ORGANIZATION_ROLE ( 'classification_officer' ) ;
#257 = ORIENTED_EDGE ( 'NONE', *, *, #294, .T. ) ;
#258 = LINE ( 'NONE', #49, #276 ) ;
#259 = EDGE_LOOP ( 'NONE', ( #80, #101, #144, #213 ) ) ;
#260 = CIRCLE ( 'NONE', #175, 2.000000000000000000 ) ;
#261 = VERTEX_POINT ( 'NONE', #142 ) ;
#262 = SECURITY_CLASSIFICATION ( '', '', #254 ) ;
#263 = ORIENTED_EDGE ( 'NONE', *, *, #294, .F. ) ;
#264 = ORIENTED_EDGE ( 'NONE', *, *, #98, .T. ) ;
#265 = CC_DESIGN_PERSON_AND_ORGANIZATION_ASSIGNMENT ( #138, #111, ( #252 ) ) ;
#266 = CARTESIAN_POINT ( 'NONE',  ( 0.000000000000000000, 0.000000000000000000, 3.199999999999980638 ) ) ;
#267 = AXIS2_PLACEMENT_3D ( 'NONE', #180, #279, #94 ) ;
#268 = DIRECTION ( 'NONE',  ( 1.000000000000000000, 0.000000000000000000, 0.000000000000000000 ) ) ;
#269 = CARTESIAN_POINT ( 'NONE',  ( 2.200000000000000178, 0.000000000000000000, 2.999999999999990674 ) ) ;
#270 = APPROVAL_ROLE ( '' ) ;
#271 = DIRECTION ( 'NONE',  ( 1.000000000000000000, 0.000000000000000000, 0.000000000000000000 ) ) ;
#272 = CC_DESIGN_PERSON_AND_ORGANIZATION_ASSIGNMENT ( #219, #4, ( #201 ) ) ;
#273 = CARTESIAN_POINT ( 'NONE',  ( 0.000000000000000000, 0.000000000000000000, 0.000000000000000000 ) ) ;
#274 = DIRECTION ( 'NONE',  ( 1.000000000000000000, 0.000000000000000000, -0.000000000000000000 ) ) ;
#275 = TOROIDAL_SURFACE ( 'NONE', #188, 2.200000000000000178, 0.2000000000000000111 ) ;
#276 = VECTOR ( 'NONE', #65, 1000.000000000000000 ) ;
#277 = CALENDAR_DATE ( 2022, 20, 6 ) ;
#278 = APPROVAL_STATUS ( 'not_yet_approved' ) ;
#279 = DIRECTION ( 'NONE',  ( 0.000000000000000000, 0.000000000000000000, 1.000000000000000000 ) ) ;
#280 = ADVANCED_FACE ( 'NONE', ( #115 ), #255, .T. ) ;
#281 = DIRECTION ( 'NONE',  ( 1.000000000000000000, 0.000000000000000000, 0.000000000000000000 ) ) ;
#282 = APPROVAL_PERSON_ORGANIZATION ( #13, #193, #119 ) ;
#283 = CALENDAR_DATE ( 2022, 20, 6 ) ;
#284 = AXIS2_PLACEMENT_3D ( 'NONE', #289, #205, #9 ) ;
#285 = ORIENTED_EDGE ( 'NONE', *, *, #7, .T. ) ;
#286 = VERTEX_POINT ( 'NONE', #167 ) ;
#287 = AXIS2_PLACEMENT_3D ( 'NONE', #266, #56, #34 ) ;
#288 = AXIS2_PLACEMENT_3D ( 'NONE', #31, #241, #5 ) ;
#289 = CARTESIAN_POINT ( 'NONE',  ( -2.200000000000000178, 2.694222958124177006E-16, 3.199999999999980638 ) ) ;
#290 = DATE_AND_TIME ( #295, #45 ) ;
#291 = CARTESIAN_POINT ( 'NONE',  ( 4.000000000000000000, 4.898587196589412829E-16, 3.000000000000000000 ) ) ;
#292 = DIRECTION ( 'NONE',  ( 1.000000000000000000, 0.000000000000000000, 0.000000000000000000 ) ) ;
#293 = CARTESIAN_POINT ( 'NONE',  ( 0.000000000000000000, 0.000000000000000000, 3.000000000000000000 ) ) ;
#294 = EDGE_CURVE ( 'NONE', #76, #150, #258, .T. ) ;
#295 = CALENDAR_DATE ( 2022, 20, 6 ) ;
#296 = AXIS2_PLACEMENT_3D ( 'NONE', #293, #238, #171 ) ;
#297 = PRODUCT_RELATED_PRODUCT_CATEGORY ( 'detail', '', ( #252 ) ) ;
#298 = FACE_BOUND ( 'NONE', #99, .T. ) ;
#299 = AXIS2_PLACEMENT_3D ( 'NONE', #273, #67, #242 ) ;
#300 = ORIENTED_EDGE ( 'NONE', *, *, #166, .F. ) ;
#301 = EDGE_CURVE ( 'NONE', #150, #234, #165, .T. ) ;
#302 = ORIENTED_EDGE ( 'NONE', *, *, #170, .T. ) ;
#303 = ADVANCED_FACE ( 'NONE', ( #112 ), #178, .T. ) ;
#304 = ORIENTED_EDGE ( 'NONE', *, *, #2, .T. ) ;
#305 = CC_DESIGN_APPROVAL ( #135, ( #32 ) ) ;
#306 = EDGE_LOOP ( 'NONE', ( #263, #189, #117, #285 ) ) ;
#307 = FACE_OUTER_BOUND ( 'NONE', #120, .T. ) ;
ENDSEC;
END-ISO-10303-21;
