ISO-10303-21;
HEADER;
FILE_DESCRIPTION (( 'STEP AP203' ),
    '1' );
FILE_NAME ('df95.STEP',
    '2022-06-20T09:20:51',
    ( '' ),
    ( '' ),
    'SwSTEP 2.0',
    'SolidWorks 2019',
    '' );
FILE_SCHEMA (( 'CONFIG_CONTROL_DESIGN' ));
ENDSEC;

DATA;
#1 = AXIS2_PLACEMENT_3D ( 'NONE', #14, #176, #15 ) ;
#2 = LOCAL_TIME ( 11, 20, 51.00000000000000000, #34 ) ;
#3 = CARTESIAN_POINT ( 'NONE',  ( 13.00000000000000178, 1.592040838891559293E-15, 8.000000000000000000 ) ) ;
#4 = APPROVAL_STATUS ( 'not_yet_approved' ) ;
#5 = CYLINDRICAL_SURFACE ( 'NONE', #252, 10.00000000000000000 ) ;
#6 = ADVANCED_FACE ( 'NONE', ( #116 ), #49, .T. ) ;
#7 = PERSON_AND_ORGANIZATION_ROLE ( 'creator' ) ;
#8 = DIRECTION ( 'NONE',  ( -0.000000000000000000, -0.000000000000000000, -1.000000000000000000 ) ) ;
#9 = APPROVAL_DATE_TIME ( #283, #97 ) ;
#10 = PLANE ( 'NONE',  #48 ) ;
#11 = CARTESIAN_POINT ( 'NONE',  ( -10.20000000000000107, 1.249139735130300365E-15, 8.199999999999999289 ) ) ;
#12 = CALENDAR_DATE ( 2022, 20, 6 ) ;
#13 = EDGE_CURVE ( 'NONE', #118, #251, #301, .T. ) ;
#14 = CARTESIAN_POINT ( 'NONE',  ( 0.000000000000000000, 0.000000000000000000, 108.0000000000000142 ) ) ;
#15 = DIRECTION ( 'NONE',  ( 1.000000000000000000, 0.000000000000000000, 0.000000000000000000 ) ) ;
#16 = FACE_OUTER_BOUND ( 'NONE', #141, .T. ) ;
#17 = APPROVAL ( #4, 'NEURÈENÝ' ) ;
#18 = CARTESIAN_POINT ( 'NONE',  ( 0.000000000000000000, 0.000000000000000000, 0.000000000000000000 ) ) ;
#19 = DIRECTION ( 'NONE',  ( -1.000000000000000000, 1.224646799147353207E-16, 0.000000000000000000 ) ) ;
#20 = DIRECTION ( 'NONE',  ( 0.000000000000000000, 0.000000000000000000, 1.000000000000000000 ) ) ;
#21 = VECTOR ( 'NONE', #8, 1000.000000000000000 ) ;
#22 = VERTEX_POINT ( 'NONE', #69 ) ;
#23 = EDGE_CURVE ( 'NONE', #138, #22, #126, .T. ) ;
#24 = EDGE_LOOP ( 'NONE', ( #296, #232, #45, #184 ) ) ;
#25 = DIRECTION ( 'NONE',  ( 1.000000000000000000, 0.000000000000000000, 0.000000000000000000 ) ) ;
#26 = ORIENTED_EDGE ( 'NONE', *, *, #23, .F. ) ;
#27 = AXIS2_PLACEMENT_3D ( 'NONE', #11, #53, #19 ) ;
#28 = LOCAL_TIME ( 11, 20, 51.00000000000000000, #71 ) ;
#29 = EDGE_LOOP ( 'NONE', ( #161, #185 ) ) ;
#30 = CARTESIAN_POINT ( 'NONE',  ( -13.00000000000000178, 0.000000000000000000, 8.000000000000000000 ) ) ;
#31 = DIRECTION ( 'NONE',  ( 0.000000000000000000, 0.000000000000000000, 1.000000000000000000 ) ) ;
#32 = AXIS2_PLACEMENT_3D ( 'NONE', #237, #74, #123 ) ;
#33 = CARTESIAN_POINT ( 'NONE',  ( 10.00000000000000000, 1.224646799147353256E-15, 108.0000000000000142 ) ) ;
#34 = COORDINATED_UNIVERSAL_TIME_OFFSET ( 1, 0, .AHEAD. ) ;
#35 = CIRCLE ( 'NONE', #285, 10.00000000000000000 ) ;
#36 = CARTESIAN_POINT ( 'NONE',  ( 0.000000000000000000, 0.000000000000000000, 8.000000000000000000 ) ) ;
#37 = DIRECTION ( 'NONE',  ( 0.000000000000000000, 0.000000000000000000, 1.000000000000000000 ) ) ;
#38 = CARTESIAN_POINT ( 'NONE',  ( 0.000000000000000000, 0.000000000000000000, 8.000000000000000000 ) ) ;
#39 = PRODUCT ( 'df95', 'df95', '', ( #258 ) ) ;
#40 = AXIS2_PLACEMENT_3D ( 'NONE', #267, #149, #171 ) ;
#41 = CC_DESIGN_APPROVAL ( #97, ( #61 ) ) ;
#42 = EDGE_LOOP ( 'NONE', ( #274, #223, #135, #66 ) ) ;
#43 = CC_DESIGN_SECURITY_CLASSIFICATION ( #61, ( #300 ) ) ;
#44 = ORIENTED_EDGE ( 'NONE', *, *, #120, .T. ) ;
#45 = ORIENTED_EDGE ( 'NONE', *, *, #230, .T. ) ;
#46 = APPLICATION_PROTOCOL_DEFINITION ( 'international standard', 'config_control_design', 1994, #235 ) ;
#47 = DIRECTION ( 'NONE',  ( 1.000000000000000000, 0.000000000000000000, 0.000000000000000000 ) ) ;
#48 = AXIS2_PLACEMENT_3D ( 'NONE', #173, #305, #278 ) ;
#49 = CYLINDRICAL_SURFACE ( 'NONE', #198, 13.00000000000000178 ) ;
#50 = EDGE_CURVE ( 'NONE', #231, #271, #73, .T. ) ;
#51 = FACE_OUTER_BOUND ( 'NONE', #294, .T. ) ;
#52 = COORDINATED_UNIVERSAL_TIME_OFFSET ( 1, 0, .AHEAD. ) ;
#53 = DIRECTION ( 'NONE',  ( 1.224646799147353207E-16, 1.000000000000000000, -0.000000000000000000 ) ) ;
#54 = SHAPE_DEFINITION_REPRESENTATION ( #128, #302 ) ;
#55 = DIRECTION ( 'NONE',  ( -1.000000000000000000, 0.000000000000000000, 0.000000000000000000 ) ) ;
#56 = DIRECTION ( 'NONE',  ( 0.000000000000000000, 0.000000000000000000, 1.000000000000000000 ) ) ;
#57 = DIRECTION ( 'NONE',  ( -0.000000000000000000, -0.000000000000000000, -1.000000000000000000 ) ) ;
#58 = EDGE_CURVE ( 'NONE', #200, #118, #243, .T. ) ;
#59 = CARTESIAN_POINT ( 'NONE',  ( 13.00000000000000178, 1.592040838891559293E-15, 0.000000000000000000 ) ) ;
#60 = AXIS2_PLACEMENT_3D ( 'NONE', #124, #37, #289 ) ;
#61 = SECURITY_CLASSIFICATION ( '', '', #146 ) ;
#62 = ORIENTED_EDGE ( 'NONE', *, *, #194, .T. ) ;
#63 = EDGE_LOOP ( 'NONE', ( #137, #199, #158, #44 ) ) ;
#64 = CARTESIAN_POINT ( 'NONE',  ( -10.00000000000000000, 0.000000000000000000, 8.199999999999999289 ) ) ;
#65 = CIRCLE ( 'NONE', #107, 13.00000000000000178 ) ;
#66 = ORIENTED_EDGE ( 'NONE', *, *, #230, .F. ) ;
#67 = DIRECTION ( 'NONE',  ( 1.000000000000000000, 0.000000000000000000, 0.000000000000000000 ) ) ;
#68 = CARTESIAN_POINT ( 'NONE',  ( -13.00000000000000178, 0.000000000000000000, 8.000000000000000000 ) ) ;
#69 = CARTESIAN_POINT ( 'NONE',  ( -10.20000000000000107, 1.249139735130300365E-15, 8.000000000000000000 ) ) ;
#70 = FACE_OUTER_BOUND ( 'NONE', #24, .T. ) ;
#71 = COORDINATED_UNIVERSAL_TIME_OFFSET ( 1, 0, .AHEAD. ) ;
#72 = PERSON_AND_ORGANIZATION ( #179, #227 ) ;
#73 = CIRCLE ( 'NONE', #279, 10.00000000000000000 ) ;
#74 = DIRECTION ( 'NONE',  ( -0.000000000000000000, -0.000000000000000000, -1.000000000000000000 ) ) ;
#75 = APPROVAL_DATE_TIME ( #96, #166 ) ;
#76 = PERSON_AND_ORGANIZATION ( #179, #227 ) ;
#77 = CARTESIAN_POINT ( 'NONE',  ( -13.00000000000000178, 0.000000000000000000, 0.000000000000000000 ) ) ;
#78 = FACE_OUTER_BOUND ( 'NONE', #253, .T. ) ;
#79 = AXIS2_PLACEMENT_3D ( 'NONE', #160, #277, #47 ) ;
#80 = CC_DESIGN_APPROVAL ( #166, ( #300 ) ) ;
#81 = LINE ( 'NONE', #249, #272 ) ;
#82 = CC_DESIGN_PERSON_AND_ORGANIZATION_ASSIGNMENT ( #76, #7, ( #177 ) ) ;
#83 = DIRECTION ( 'NONE',  ( -0.000000000000000000, -0.000000000000000000, -1.000000000000000000 ) ) ;
#84 = ORIENTED_EDGE ( 'NONE', *, *, #205, .T. ) ;
#85 = PERSON_AND_ORGANIZATION ( #179, #227 ) ;
#86 = DIRECTION ( 'NONE',  ( 1.000000000000000000, 0.000000000000000000, -0.000000000000000000 ) ) ;
#87 = APPROVAL_PERSON_ORGANIZATION ( #288, #97, #262 ) ;
#88 = ORIENTED_EDGE ( 'NONE', *, *, #50, .F. ) ;
#89 = EDGE_LOOP ( 'NONE', ( #202, #113, #26, #276 ) ) ;
#90 = VERTEX_POINT ( 'NONE', #163 ) ;
#91 = CARTESIAN_POINT ( 'NONE',  ( 0.000000000000000000, 0.000000000000000000, 8.000000000000000000 ) ) ;
#92 = ORIENTED_EDGE ( 'NONE', *, *, #238, .F. ) ;
#93 = AXIS2_PLACEMENT_3D ( 'NONE', #292, #56, #180 ) ;
#94 = EDGE_CURVE ( 'NONE', #200, #183, #280, .T. ) ;
#95 =( GEOMETRIC_REPRESENTATION_CONTEXT ( 3 ) GLOBAL_UNCERTAINTY_ASSIGNED_CONTEXT ( ( #286 ) ) GLOBAL_UNIT_ASSIGNED_CONTEXT ( ( #307, #119, #139 ) ) REPRESENTATION_CONTEXT ( 'NONE', 'WORKASPACE' ) );
#96 = DATE_AND_TIME ( #165, #2 ) ;
#97 = APPROVAL ( #236, 'NEURÈENÝ' ) ;
#98 = DATE_AND_TIME ( #215, #28 ) ;
#99 = PERSON_AND_ORGANIZATION ( #179, #227 ) ;
#100 = CIRCLE ( 'NONE', #268, 0.2000000000000005107 ) ;
#101 = APPROVAL_ROLE ( '' ) ;
#102 = DIRECTION ( 'NONE',  ( 1.000000000000000000, 0.000000000000000000, 0.000000000000000000 ) ) ;
#103 = DATE_TIME_ROLE ( 'creation_date' ) ;
#104 = CARTESIAN_POINT ( 'NONE',  ( -10.00000000000000000, 0.000000000000000000, 108.0000000000000142 ) ) ;
#105 = ADVANCED_FACE ( 'NONE', ( #214 ), #5, .T. ) ;
#106 = CARTESIAN_POINT ( 'NONE',  ( 0.000000000000000000, 0.000000000000000000, 0.000000000000000000 ) ) ;
#107 = AXIS2_PLACEMENT_3D ( 'NONE', #38, #152, #108 ) ;
#108 = DIRECTION ( 'NONE',  ( 1.000000000000000000, 0.000000000000000000, 0.000000000000000000 ) ) ;
#109 = ADVANCED_FACE ( 'NONE', ( #70 ), #264, .T. ) ;
#110 = EDGE_LOOP ( 'NONE', ( #154, #226 ) ) ;
#111 = CLOSED_SHELL ( 'NONE', ( #151, #105, #250, #6, #130, #219, #109, #261, #156 ) ) ;
#112 = ORIENTED_EDGE ( 'NONE', *, *, #94, .T. ) ;
#113 = ORIENTED_EDGE ( 'NONE', *, *, #144, .T. ) ;
#114 = DIRECTION ( 'NONE',  ( 1.000000000000000000, 0.000000000000000000, 0.000000000000000000 ) ) ;
#115 = EDGE_CURVE ( 'NONE', #90, #231, #239, .T. ) ;
#116 = FACE_OUTER_BOUND ( 'NONE', #63, .T. ) ;
#117 = TOROIDAL_SURFACE ( 'NONE', #210, 10.20000000000000107, 0.2000000000000000111 ) ;
#118 = VERTEX_POINT ( 'NONE', #30 ) ;
#119 =( NAMED_UNIT ( * ) PLANE_ANGLE_UNIT ( ) SI_UNIT ( $, .RADIAN. ) );
#120 = EDGE_CURVE ( 'NONE', #251, #183, #225, .T. ) ;
#121 = PERSON_AND_ORGANIZATION ( #179, #227 ) ;
#122 = PERSON_AND_ORGANIZATION ( #179, #227 ) ;
#123 = DIRECTION ( 'NONE',  ( -1.000000000000000000, 0.000000000000000000, 0.000000000000000000 ) ) ;
#124 = CARTESIAN_POINT ( 'NONE',  ( 0.000000000000000000, 0.000000000000000000, 0.000000000000000000 ) ) ;
#125 = COORDINATED_UNIVERSAL_TIME_OFFSET ( 1, 0, .AHEAD. ) ;
#126 = CIRCLE ( 'NONE', #79, 10.20000000000000107 ) ;
#127 = CARTESIAN_POINT ( 'NONE',  ( 0.000000000000000000, 0.000000000000000000, 108.0000000000000142 ) ) ;
#128 = PRODUCT_DEFINITION_SHAPE ( 'NONE', 'NONE',  #177 ) ;
#129 = CARTESIAN_POINT ( 'NONE',  ( 0.000000000000000000, 0.000000000000000000, 8.199999999999999289 ) ) ;
#130 = ADVANCED_FACE ( 'NONE', ( #131, #78 ), #287, .T. ) ;
#131 = FACE_BOUND ( 'NONE', #110, .T. ) ;
#132 = CARTESIAN_POINT ( 'NONE',  ( 10.00000000000000000, 1.224646799147353256E-15, 8.199999999999999289 ) ) ;
#133 = ORIENTED_EDGE ( 'NONE', *, *, #140, .T. ) ;
#134 = APPROVAL_PERSON_ORGANIZATION ( #122, #17, #101 ) ;
#135 = ORIENTED_EDGE ( 'NONE', *, *, #50, .T. ) ;
#136 = MANIFOLD_SOLID_BREP ( 'Zaoblit1', #111 ) ;
#137 = ORIENTED_EDGE ( 'NONE', *, *, #94, .F. ) ;
#138 = VERTEX_POINT ( 'NONE', #147 ) ;
#139 =( NAMED_UNIT ( * ) SI_UNIT ( $, .STERADIAN. ) SOLID_ANGLE_UNIT ( ) );
#140 = EDGE_CURVE ( 'NONE', #183, #251, #293, .T. ) ;
#141 = EDGE_LOOP ( 'NONE', ( #257, #88, #221, #92 ) ) ;
#142 = CARTESIAN_POINT ( 'NONE',  ( 0.000000000000000000, 0.000000000000000000, 8.199999999999999289 ) ) ;
#143 = DIRECTION ( 'NONE',  ( -0.000000000000000000, -0.000000000000000000, -1.000000000000000000 ) ) ;
#144 = EDGE_CURVE ( 'NONE', #271, #22, #206, .T. ) ;
#145 = CARTESIAN_POINT ( 'NONE',  ( 0.000000000000000000, 0.000000000000000000, 108.0000000000000142 ) ) ;
#146 = SECURITY_CLASSIFICATION_LEVEL ( 'unclassified' ) ;
#147 = CARTESIAN_POINT ( 'NONE',  ( 10.20000000000000107, 0.000000000000000000, 8.000000000000000000 ) ) ;
#148 = VECTOR ( 'NONE', #189, 1000.000000000000000 ) ;
#149 = DIRECTION ( 'NONE',  ( 0.000000000000000000, 0.000000000000000000, 1.000000000000000000 ) ) ;
#150 = LOCAL_TIME ( 11, 20, 51.00000000000000000, #52 ) ;
#151 = ADVANCED_FACE ( 'NONE', ( #175 ), #248, .F. ) ;
#152 = DIRECTION ( 'NONE',  ( 0.000000000000000000, 0.000000000000000000, 1.000000000000000000 ) ) ;
#153 = CIRCLE ( 'NONE', #1, 10.00000000000000000 ) ;
#154 = ORIENTED_EDGE ( 'NONE', *, *, #23, .T. ) ;
#155 = EDGE_LOOP ( 'NONE', ( #259, #112, #133, #228 ) ) ;
#156 = ADVANCED_FACE ( 'NONE', ( #16 ), #117, .F. ) ;
#157 = LOCAL_TIME ( 11, 20, 51.00000000000000000, #240 ) ;
#158 = ORIENTED_EDGE ( 'NONE', *, *, #13, .T. ) ;
#159 = APPLICATION_PROTOCOL_DEFINITION ( 'international standard', 'config_control_design', 1994, #201 ) ;
#160 = CARTESIAN_POINT ( 'NONE',  ( 0.000000000000000000, 0.000000000000000000, 8.000000000000000000 ) ) ;
#161 = ORIENTED_EDGE ( 'NONE', *, *, #120, .F. ) ;
#162 = CIRCLE ( 'NONE', #233, 10.20000000000000107 ) ;
#163 = CARTESIAN_POINT ( 'NONE',  ( 10.00000000000000000, 1.224646799147353256E-15, 108.0000000000000142 ) ) ;
#164 = PERSON_AND_ORGANIZATION_ROLE ( 'classification_officer' ) ;
#165 = CALENDAR_DATE ( 2022, 20, 6 ) ;
#166 = APPROVAL ( #266, 'NEURÈENÝ' ) ;
#167 = AXIS2_PLACEMENT_3D ( 'NONE', #220, #244, #86 ) ;
#168 = APPROVAL_PERSON_ORGANIZATION ( #99, #166, #188 ) ;
#169 = DATE_AND_TIME ( #191, #157 ) ;
#170 = CC_DESIGN_PERSON_AND_ORGANIZATION_ASSIGNMENT ( #72, #242, ( #300 ) ) ;
#171 = DIRECTION ( 'NONE',  ( 1.000000000000000000, 0.000000000000000000, 0.000000000000000000 ) ) ;
#172 = PERSON_AND_ORGANIZATION ( #179, #227 ) ;
#173 = CARTESIAN_POINT ( 'NONE',  ( 0.000000000000000000, 0.000000000000000000, 108.0000000000000142 ) ) ;
#174 = AXIS2_PLACEMENT_3D ( 'NONE', #18, #31, #114 ) ;
#175 = FACE_OUTER_BOUND ( 'NONE', #89, .T. ) ;
#176 = DIRECTION ( 'NONE',  ( 0.000000000000000000, 0.000000000000000000, 1.000000000000000000 ) ) ;
#177 = PRODUCT_DEFINITION ( 'NEZNÁMÝ', '', #300, #295 ) ;
#178 = FACE_OUTER_BOUND ( 'NONE', #29, .T. ) ;
#179 = PERSON ( 'NEURÈENÝ', 'NEURÈENÝ', 'NEURÈENÝ', ('NEURÈENÝ'), ('NEURÈENÝ'), ('NEURÈENÝ') ) ;
#180 = DIRECTION ( 'NONE',  ( 1.000000000000000000, 0.000000000000000000, 0.000000000000000000 ) ) ;
#181 = AXIS2_PLACEMENT_3D ( 'NONE', #127, #245, #102 ) ;
#182 = DIRECTION ( 'NONE',  ( -1.000000000000000000, 0.000000000000000000, 0.000000000000000000 ) ) ;
#183 = VERTEX_POINT ( 'NONE', #59 ) ;
#184 = ORIENTED_EDGE ( 'NONE', *, *, #297, .T. ) ;
#185 = ORIENTED_EDGE ( 'NONE', *, *, #140, .F. ) ;
#186 = DIRECTION ( 'NONE',  ( -0.000000000000000000, -0.000000000000000000, -1.000000000000000000 ) ) ;
#187 = DIRECTION ( 'NONE',  ( -1.000000000000000000, 0.000000000000000000, 0.000000000000000000 ) ) ;
#188 = APPROVAL_ROLE ( '' ) ;
#189 = DIRECTION ( 'NONE',  ( -0.000000000000000000, -0.000000000000000000, -1.000000000000000000 ) ) ;
#190 = CC_DESIGN_PERSON_AND_ORGANIZATION_ASSIGNMENT ( #85, #229, ( #39 ) ) ;
#191 = CALENDAR_DATE ( 2022, 20, 6 ) ;
#192 = DATE_TIME_ROLE ( 'classification_date' ) ;
#193 = AXIS2_PLACEMENT_3D ( 'NONE', #106, #291, #290 ) ;
#194 = EDGE_CURVE ( 'NONE', #197, #90, #153, .T. ) ;
#195 = CIRCLE ( 'NONE', #181, 10.00000000000000000 ) ;
#196 = DIRECTION ( 'NONE',  ( 1.000000000000000000, 0.000000000000000000, 0.000000000000000000 ) ) ;
#197 = VERTEX_POINT ( 'NONE', #104 ) ;
#198 = AXIS2_PLACEMENT_3D ( 'NONE', #91, #204, #182 ) ;
#199 = ORIENTED_EDGE ( 'NONE', *, *, #211, .F. ) ;
#200 = VERTEX_POINT ( 'NONE', #241 ) ;
#201 = APPLICATION_CONTEXT ( 'configuration controlled 3d designs of mechanical parts and assemblies' ) ;
#202 = ORIENTED_EDGE ( 'NONE', *, *, #297, .F. ) ;
#203 = CARTESIAN_POINT ( 'NONE',  ( 10.20000000000000107, 0.000000000000000000, 8.199999999999999289 ) ) ;
#204 = DIRECTION ( 'NONE',  ( -0.000000000000000000, -0.000000000000000000, -1.000000000000000000 ) ) ;
#205 = EDGE_CURVE ( 'NONE', #90, #197, #195, .T. ) ;
#206 = CIRCLE ( 'NONE', #27, 0.2000000000000005107 ) ;
#207 = DIRECTION ( 'NONE',  ( 0.000000000000000000, 0.000000000000000000, 1.000000000000000000 ) ) ;
#208 = PRODUCT_RELATED_PRODUCT_CATEGORY ( 'detail', '', ( #39 ) ) ;
#209 = FACE_OUTER_BOUND ( 'NONE', #155, .T. ) ;
#210 = AXIS2_PLACEMENT_3D ( 'NONE', #129, #217, #196 ) ;
#211 = EDGE_CURVE ( 'NONE', #118, #200, #65, .T. ) ;
#212 = PERSON_AND_ORGANIZATION_ROLE ( 'creator' ) ;
#213 = CALENDAR_DATE ( 2022, 20, 6 ) ;
#214 = FACE_OUTER_BOUND ( 'NONE', #42, .T. ) ;
#215 = CALENDAR_DATE ( 2022, 20, 6 ) ;
#216 = AXIS2_PLACEMENT_3D ( 'NONE', #36, #265, #55 ) ;
#217 = DIRECTION ( 'NONE',  ( 0.000000000000000000, 0.000000000000000000, 1.000000000000000000 ) ) ;
#218 = PLANE ( 'NONE',  #193 ) ;
#219 = ADVANCED_FACE ( 'NONE', ( #178 ), #218, .F. ) ;
#220 = CARTESIAN_POINT ( 'NONE',  ( 0.000000000000000000, 0.000000000000000000, 8.000000000000000000 ) ) ;
#221 = ORIENTED_EDGE ( 'NONE', *, *, #246, .T. ) ;
#222 = CARTESIAN_POINT ( 'NONE',  ( 0.000000000000000000, 0.000000000000000000, 8.000000000000000000 ) ) ;
#223 = ORIENTED_EDGE ( 'NONE', *, *, #115, .T. ) ;
#224 = CARTESIAN_POINT ( 'NONE',  ( 0.000000000000000000, 0.000000000000000000, 8.000000000000000000 ) ) ;
#225 = CIRCLE ( 'NONE', #60, 13.00000000000000178 ) ;
#226 = ORIENTED_EDGE ( 'NONE', *, *, #238, .T. ) ;
#227 = ORGANIZATION ( 'NEURÈENÝ', 'NEURÈENÝ', '' ) ;
#228 = ORIENTED_EDGE ( 'NONE', *, *, #13, .F. ) ;
#229 = PERSON_AND_ORGANIZATION_ROLE ( 'design_owner' ) ;
#230 = EDGE_CURVE ( 'NONE', #197, #271, #81, .T. ) ;
#231 = VERTEX_POINT ( 'NONE', #132 ) ;
#232 = ORIENTED_EDGE ( 'NONE', *, *, #194, .F. ) ;
#233 = AXIS2_PLACEMENT_3D ( 'NONE', #222, #83, #25 ) ;
#234 = DIRECTION ( 'NONE',  ( 0.000000000000000000, 0.000000000000000000, -1.000000000000000000 ) ) ;
#235 = APPLICATION_CONTEXT ( 'configuration controlled 3d designs of mechanical parts and assemblies' ) ;
#236 = APPROVAL_STATUS ( 'not_yet_approved' ) ;
#237 = CARTESIAN_POINT ( 'NONE',  ( 0.000000000000000000, 0.000000000000000000, 108.0000000000000142 ) ) ;
#238 = EDGE_CURVE ( 'NONE', #22, #138, #162, .T. ) ;
#239 = LINE ( 'NONE', #33, #21 ) ;
#240 = COORDINATED_UNIVERSAL_TIME_OFFSET ( 1, 0, .AHEAD. ) ;
#241 = CARTESIAN_POINT ( 'NONE',  ( 13.00000000000000178, 1.592040838891559293E-15, 8.000000000000000000 ) ) ;
#242 = PERSON_AND_ORGANIZATION_ROLE ( 'design_supplier' ) ;
#243 = CIRCLE ( 'NONE', #260, 13.00000000000000178 ) ;
#244 = DIRECTION ( 'NONE',  ( 0.000000000000000000, 0.000000000000000000, 1.000000000000000000 ) ) ;
#245 = DIRECTION ( 'NONE',  ( 0.000000000000000000, 0.000000000000000000, 1.000000000000000000 ) ) ;
#246 = EDGE_CURVE ( 'NONE', #231, #138, #100, .T. ) ;
#247 = CC_DESIGN_PERSON_AND_ORGANIZATION_ASSIGNMENT ( #121, #164, ( #61 ) ) ;
#248 = TOROIDAL_SURFACE ( 'NONE', #93, 10.20000000000000107, 0.2000000000000000111 ) ;
#249 = CARTESIAN_POINT ( 'NONE',  ( -10.00000000000000000, 0.000000000000000000, 108.0000000000000142 ) ) ;
#250 = ADVANCED_FACE ( 'NONE', ( #209 ), #306, .T. ) ;
#251 = VERTEX_POINT ( 'NONE', #77 ) ;
#252 = AXIS2_PLACEMENT_3D ( 'NONE', #145, #143, #187 ) ;
#253 = EDGE_LOOP ( 'NONE', ( #255, #298 ) ) ;
#254 = DIRECTION ( 'NONE',  ( 0.000000000000000000, 0.000000000000000000, 1.000000000000000000 ) ) ;
#255 = ORIENTED_EDGE ( 'NONE', *, *, #211, .T. ) ;
#256 = CC_DESIGN_PERSON_AND_ORGANIZATION_ASSIGNMENT ( #172, #212, ( #300 ) ) ;
#257 = ORIENTED_EDGE ( 'NONE', *, *, #144, .F. ) ;
#258 = MECHANICAL_CONTEXT ( 'NONE', #235, 'mechanical' ) ;
#259 = ORIENTED_EDGE ( 'NONE', *, *, #58, .F. ) ;
#260 = AXIS2_PLACEMENT_3D ( 'NONE', #224, #20, #270 ) ;
#261 = ADVANCED_FACE ( 'NONE', ( #51 ), #10, .T. ) ;
#262 = APPROVAL_ROLE ( '' ) ;
#263 = VECTOR ( 'NONE', #186, 1000.000000000000000 ) ;
#264 = CYLINDRICAL_SURFACE ( 'NONE', #32, 10.00000000000000000 ) ;
#265 = DIRECTION ( 'NONE',  ( -0.000000000000000000, -0.000000000000000000, -1.000000000000000000 ) ) ;
#266 = APPROVAL_STATUS ( 'not_yet_approved' ) ;
#267 = CARTESIAN_POINT ( 'NONE',  ( 0.000000000000000000, 0.000000000000000000, 0.000000000000000000 ) ) ;
#268 = AXIS2_PLACEMENT_3D ( 'NONE', #203, #299, #234 ) ;
#269 = LOCAL_TIME ( 11, 20, 51.00000000000000000, #125 ) ;
#270 = DIRECTION ( 'NONE',  ( 1.000000000000000000, 0.000000000000000000, 0.000000000000000000 ) ) ;
#271 = VERTEX_POINT ( 'NONE', #64 ) ;
#272 = VECTOR ( 'NONE', #57, 1000.000000000000000 ) ;
#273 = CC_DESIGN_APPROVAL ( #17, ( #177 ) ) ;
#274 = ORIENTED_EDGE ( 'NONE', *, *, #205, .F. ) ;
#275 = CC_DESIGN_DATE_AND_TIME_ASSIGNMENT ( #98, #103, ( #177 ) ) ;
#276 = ORIENTED_EDGE ( 'NONE', *, *, #246, .F. ) ;
#277 = DIRECTION ( 'NONE',  ( -0.000000000000000000, -0.000000000000000000, -1.000000000000000000 ) ) ;
#278 = DIRECTION ( 'NONE',  ( 1.000000000000000000, 0.000000000000000000, -0.000000000000000000 ) ) ;
#279 = AXIS2_PLACEMENT_3D ( 'NONE', #142, #207, #304 ) ;
#280 = LINE ( 'NONE', #3, #148 ) ;
#281 = APPROVAL_DATE_TIME ( #282, #17 ) ;
#282 = DATE_AND_TIME ( #12, #150 ) ;
#283 = DATE_AND_TIME ( #213, #269 ) ;
#284 = CC_DESIGN_DATE_AND_TIME_ASSIGNMENT ( #169, #192, ( #61 ) ) ;
#285 = AXIS2_PLACEMENT_3D ( 'NONE', #303, #254, #67 ) ;
#286 = UNCERTAINTY_MEASURE_WITH_UNIT (LENGTH_MEASURE( 1.000000000000000082E-05 ), #307, 'distance_accuracy_value', 'NONE');
#287 = PLANE ( 'NONE',  #167 ) ;
#288 = PERSON_AND_ORGANIZATION ( #179, #227 ) ;
#289 = DIRECTION ( 'NONE',  ( 1.000000000000000000, 0.000000000000000000, 0.000000000000000000 ) ) ;
#290 = DIRECTION ( 'NONE',  ( 1.000000000000000000, 0.000000000000000000, -0.000000000000000000 ) ) ;
#291 = DIRECTION ( 'NONE',  ( 0.000000000000000000, 0.000000000000000000, 1.000000000000000000 ) ) ;
#292 = CARTESIAN_POINT ( 'NONE',  ( 0.000000000000000000, 0.000000000000000000, 8.199999999999999289 ) ) ;
#293 = CIRCLE ( 'NONE', #40, 13.00000000000000178 ) ;
#294 = EDGE_LOOP ( 'NONE', ( #62, #84 ) ) ;
#295 = DESIGN_CONTEXT ( 'detailed design', #201, 'design' ) ;
#296 = ORIENTED_EDGE ( 'NONE', *, *, #115, .F. ) ;
#297 = EDGE_CURVE ( 'NONE', #271, #231, #35, .T. ) ;
#298 = ORIENTED_EDGE ( 'NONE', *, *, #58, .T. ) ;
#299 = DIRECTION ( 'NONE',  ( 0.000000000000000000, -1.000000000000000000, 0.000000000000000000 ) ) ;
#300 = PRODUCT_DEFINITION_FORMATION_WITH_SPECIFIED_SOURCE ( 'LIBOVOLNÝ', '', #39, .NOT_KNOWN. ) ;
#301 = LINE ( 'NONE', #68, #263 ) ;
#302 = ADVANCED_BREP_SHAPE_REPRESENTATION ( 'df95', ( #136, #174 ), #95 ) ;
#303 = CARTESIAN_POINT ( 'NONE',  ( 0.000000000000000000, 0.000000000000000000, 8.199999999999999289 ) ) ;
#304 = DIRECTION ( 'NONE',  ( 1.000000000000000000, 0.000000000000000000, 0.000000000000000000 ) ) ;
#305 = DIRECTION ( 'NONE',  ( 0.000000000000000000, 0.000000000000000000, 1.000000000000000000 ) ) ;
#306 = CYLINDRICAL_SURFACE ( 'NONE', #216, 13.00000000000000178 ) ;
#307 =( LENGTH_UNIT ( ) NAMED_UNIT ( * ) SI_UNIT ( .MILLI., .METRE. ) );
ENDSEC;
END-ISO-10303-21;
