ISO-10303-21;
HEADER;
FILE_DESCRIPTION (( 'STEP AP203' ),
    '1' );
FILE_NAME ('7643.STEP',
    '2022-06-20T09:19:43',
    ( '' ),
    ( '' ),
    'SwSTEP 2.0',
    'SolidWorks 2019',
    '' );
FILE_SCHEMA (( 'CONFIG_CONTROL_DESIGN' ));
ENDSEC;

DATA;
#1 = DIRECTION ( 'NONE',  ( -0.000000000000000000, -0.000000000000000000, -1.000000000000000000 ) ) ;
#2 = CARTESIAN_POINT ( 'NONE',  ( 0.000000000000000000, 0.000000000000000000, 8.000000000000000000 ) ) ;
#3 = LOCAL_TIME ( 11, 19, 43.00000000000000000, #227 ) ;
#4 = AXIS2_PLACEMENT_3D ( 'NONE', #185, #226, #26 ) ;
#5 = AXIS2_PLACEMENT_3D ( 'NONE', #207, #72, #277 ) ;
#6 = MECHANICAL_CONTEXT ( 'NONE', #188, 'mechanical' ) ;
#7 = VERTEX_POINT ( 'NONE', #100 ) ;
#8 = PERSON_AND_ORGANIZATION ( #35, #187 ) ;
#9 = DIRECTION ( 'NONE',  ( -0.000000000000000000, -0.000000000000000000, -1.000000000000000000 ) ) ;
#10 = COORDINATED_UNIVERSAL_TIME_OFFSET ( 1, 0, .AHEAD. ) ;
#11 = ORIENTED_EDGE ( 'NONE', *, *, #95, .F. ) ;
#12 = FACE_BOUND ( 'NONE', #219, .T. ) ;
#13 = DESIGN_CONTEXT ( 'detailed design', #138, 'design' ) ;
#14 = DIRECTION ( 'NONE',  ( 0.000000000000000000, 0.000000000000000000, 1.000000000000000000 ) ) ;
#15 = EDGE_LOOP ( 'NONE', ( #130, #120, #143, #150 ) ) ;
#16 = DIRECTION ( 'NONE',  ( 1.000000000000000000, 0.000000000000000000, 0.000000000000000000 ) ) ;
#17 = EDGE_CURVE ( 'NONE', #117, #241, #232, .T. ) ;
#18 = SHAPE_DEFINITION_REPRESENTATION ( #202, #25 ) ;
#19 = VERTEX_POINT ( 'NONE', #116 ) ;
#20 = CARTESIAN_POINT ( 'NONE',  ( 0.000000000000000000, 0.000000000000000000, 8.000000000000000000 ) ) ;
#21 = ORIENTED_EDGE ( 'NONE', *, *, #285, .F. ) ;
#22 = LINE ( 'NONE', #53, #250 ) ;
#23 = CC_DESIGN_PERSON_AND_ORGANIZATION_ASSIGNMENT ( #8, #267, ( #159 ) ) ;
#24 = DIRECTION ( 'NONE',  ( 1.000000000000000000, 0.000000000000000000, 0.000000000000000000 ) ) ;
#25 = ADVANCED_BREP_SHAPE_REPRESENTATION ( '7643', ( #284, #29 ), #213 ) ;
#26 = DIRECTION ( 'NONE',  ( 1.000000000000000000, 0.000000000000000000, -0.000000000000000000 ) ) ;
#27 = LINE ( 'NONE', #184, #260 ) ;
#28 = FACE_OUTER_BOUND ( 'NONE', #62, .T. ) ;
#29 = AXIS2_PLACEMENT_3D ( 'NONE', #259, #14, #121 ) ;
#30 = EDGE_CURVE ( 'NONE', #117, #242, #83, .T. ) ;
#31 = PRODUCT_RELATED_PRODUCT_CATEGORY ( 'detail', '', ( #179 ) ) ;
#32 = CIRCLE ( 'NONE', #293, 10.00000000000000000 ) ;
#33 = ORIENTED_EDGE ( 'NONE', *, *, #105, .F. ) ;
#34 = DIRECTION ( 'NONE',  ( 0.000000000000000000, 0.000000000000000000, 1.000000000000000000 ) ) ;
#35 = PERSON ( 'NEURÈENÝ', 'NEURÈENÝ', 'NEURÈENÝ', ('NEURÈENÝ'), ('NEURÈENÝ'), ('NEURÈENÝ') ) ;
#36 = DIRECTION ( 'NONE',  ( 0.000000000000000000, 0.000000000000000000, 1.000000000000000000 ) ) ;
#37 = VERTEX_POINT ( 'NONE', #295 ) ;
#38 = PERSON_AND_ORGANIZATION ( #35, #187 ) ;
#39 = FACE_OUTER_BOUND ( 'NONE', #297, .T. ) ;
#40 = ORIENTED_EDGE ( 'NONE', *, *, #113, .T. ) ;
#41 = APPROVAL_STATUS ( 'not_yet_approved' ) ;
#42 = VERTEX_POINT ( 'NONE', #101 ) ;
#43 = DIRECTION ( 'NONE',  ( -0.000000000000000000, -0.000000000000000000, -1.000000000000000000 ) ) ;
#44 = COORDINATED_UNIVERSAL_TIME_OFFSET ( 1, 0, .AHEAD. ) ;
#45 = CALENDAR_DATE ( 2022, 20, 6 ) ;
#46 = ORIENTED_EDGE ( 'NONE', *, *, #113, .F. ) ;
#47 = ORIENTED_EDGE ( 'NONE', *, *, #196, .T. ) ;
#48 = DIRECTION ( 'NONE',  ( 0.000000000000000000, 0.000000000000000000, 1.000000000000000000 ) ) ;
#49 = ADVANCED_FACE ( 'NONE', ( #12, #119 ), #175, .T. ) ;
#50 = APPROVAL_ROLE ( '' ) ;
#51 = AXIS2_PLACEMENT_3D ( 'NONE', #280, #163, #55 ) ;
#52 = CARTESIAN_POINT ( 'NONE',  ( 0.000000000000000000, 0.000000000000000000, 8.000000000000000000 ) ) ;
#53 = CARTESIAN_POINT ( 'NONE',  ( 13.00000000000000178, 1.592040838891559293E-15, 8.000000000000000000 ) ) ;
#54 = FACE_OUTER_BOUND ( 'NONE', #303, .T. ) ;
#55 = DIRECTION ( 'NONE',  ( 1.000000000000000000, 0.000000000000000000, 0.000000000000000000 ) ) ;
#56 = VECTOR ( 'NONE', #172, 1000.000000000000000 ) ;
#57 = EDGE_CURVE ( 'NONE', #42, #153, #90, .T. ) ;
#58 = ORIENTED_EDGE ( 'NONE', *, *, #114, .T. ) ;
#59 = PERSON_AND_ORGANIZATION ( #35, #187 ) ;
#60 = DIRECTION ( 'NONE',  ( 1.000000000000000000, 0.000000000000000000, 0.000000000000000000 ) ) ;
#61 = APPROVAL_PERSON_ORGANIZATION ( #59, #189, #123 ) ;
#62 = EDGE_LOOP ( 'NONE', ( #11, #289 ) ) ;
#63 = VERTEX_POINT ( 'NONE', #291 ) ;
#64 = SECURITY_CLASSIFICATION_LEVEL ( 'unclassified' ) ;
#65 = ORIENTED_EDGE ( 'NONE', *, *, #30, .T. ) ;
#66 = DIRECTION ( 'NONE',  ( 0.000000000000000000, 0.000000000000000000, 1.000000000000000000 ) ) ;
#67 = CLOSED_SHELL ( 'NONE', ( #253, #88, #142, #209, #49, #231, #174, #129, #288 ) ) ;
#68 = ORIENTED_EDGE ( 'NONE', *, *, #57, .F. ) ;
#69 = ORIENTED_EDGE ( 'NONE', *, *, #111, .F. ) ;
#70 = CARTESIAN_POINT ( 'NONE',  ( -10.00000000000000000, 0.000000000000000000, 638.0000000000000000 ) ) ;
#71 = FACE_OUTER_BOUND ( 'NONE', #224, .T. ) ;
#72 = DIRECTION ( 'NONE',  ( 0.000000000000000000, 0.000000000000000000, 1.000000000000000000 ) ) ;
#73 = DIRECTION ( 'NONE',  ( 1.000000000000000000, 0.000000000000000000, 0.000000000000000000 ) ) ;
#74 = EDGE_CURVE ( 'NONE', #283, #117, #82, .T. ) ;
#75 = CIRCLE ( 'NONE', #212, 13.00000000000000178 ) ;
#76 = CC_DESIGN_SECURITY_CLASSIFICATION ( #80, ( #155 ) ) ;
#77 = PERSON_AND_ORGANIZATION ( #35, #187 ) ;
#78 = PERSON_AND_ORGANIZATION_ROLE ( 'design_owner' ) ;
#79 = DIRECTION ( 'NONE',  ( 0.000000000000000000, 0.000000000000000000, 1.000000000000000000 ) ) ;
#80 = SECURITY_CLASSIFICATION ( '', '', #64 ) ;
#81 = PERSON_AND_ORGANIZATION_ROLE ( 'design_supplier' ) ;
#82 = LINE ( 'NONE', #146, #56 ) ;
#83 = CIRCLE ( 'NONE', #94, 10.00000000000000000 ) ;
#84 = PLANE ( 'NONE',  #4 ) ;
#85 = CARTESIAN_POINT ( 'NONE',  ( 0.000000000000000000, 0.000000000000000000, 638.0000000000000000 ) ) ;
#86 = DIRECTION ( 'NONE',  ( -0.000000000000000000, -0.000000000000000000, -1.000000000000000000 ) ) ;
#87 = DIRECTION ( 'NONE',  ( 1.000000000000000000, 0.000000000000000000, 0.000000000000000000 ) ) ;
#88 = ADVANCED_FACE ( 'NONE', ( #151 ), #125, .T. ) ;
#89 = CARTESIAN_POINT ( 'NONE',  ( 0.000000000000000000, 0.000000000000000000, 8.199999999999985079 ) ) ;
#90 = CIRCLE ( 'NONE', #176, 13.00000000000000178 ) ;
#91 = CC_DESIGN_PERSON_AND_ORGANIZATION_ASSIGNMENT ( #192, #194, ( #155 ) ) ;
#92 = AXIS2_PLACEMENT_3D ( 'NONE', #131, #157, #73 ) ;
#93 = CC_DESIGN_APPROVAL ( #189, ( #159 ) ) ;
#94 = AXIS2_PLACEMENT_3D ( 'NONE', #122, #298, #221 ) ;
#95 = EDGE_CURVE ( 'NONE', #37, #7, #256, .T. ) ;
#96 = APPROVAL_ROLE ( '' ) ;
#97 = DATE_TIME_ROLE ( 'creation_date' ) ;
#98 = DIRECTION ( 'NONE',  ( -1.000000000000000000, 0.000000000000000000, 0.000000000000000000 ) ) ;
#99 = CALENDAR_DATE ( 2022, 20, 6 ) ;
#100 = CARTESIAN_POINT ( 'NONE',  ( 13.00000000000000178, 1.592040838891559293E-15, 0.000000000000000000 ) ) ;
#101 = CARTESIAN_POINT ( 'NONE',  ( 13.00000000000000178, 1.592040838891559293E-15, 8.000000000000000000 ) ) ;
#102 = CC_DESIGN_APPROVAL ( #118, ( #80 ) ) ;
#103 = CALENDAR_DATE ( 2022, 20, 6 ) ;
#104 = CARTESIAN_POINT ( 'NONE',  ( 10.20000000000000107, 0.000000000000000000, 8.199999999999985079 ) ) ;
#105 = EDGE_CURVE ( 'NONE', #241, #63, #301, .T. ) ;
#106 = ORIENTED_EDGE ( 'NONE', *, *, #105, .T. ) ;
#107 = CYLINDRICAL_SURFACE ( 'NONE', #292, 10.00000000000000000 ) ;
#108 = AXIS2_PLACEMENT_3D ( 'NONE', #217, #34, #263 ) ;
#109 = DIRECTION ( 'NONE',  ( -0.000000000000000000, -0.000000000000000000, -1.000000000000000000 ) ) ;
#110 = FACE_OUTER_BOUND ( 'NONE', #225, .T. ) ;
#111 = EDGE_CURVE ( 'NONE', #242, #63, #282, .T. ) ;
#112 = CARTESIAN_POINT ( 'NONE',  ( 0.000000000000000000, 0.000000000000000000, 8.000000000000000000 ) ) ;
#113 = EDGE_CURVE ( 'NONE', #153, #37, #27, .T. ) ;
#114 = EDGE_CURVE ( 'NONE', #19, #283, #132, .T. ) ;
#115 = AXIS2_PLACEMENT_3D ( 'NONE', #236, #9, #98 ) ;
#116 = CARTESIAN_POINT ( 'NONE',  ( 10.00000000000000000, 1.224646799147353256E-15, 638.0000000000000000 ) ) ;
#117 = VERTEX_POINT ( 'NONE', #139 ) ;
#118 = APPROVAL ( #133, 'NEURÈENÝ' ) ;
#119 = FACE_OUTER_BOUND ( 'NONE', #193, .T. ) ;
#120 = ORIENTED_EDGE ( 'NONE', *, *, #286, .T. ) ;
#121 = DIRECTION ( 'NONE',  ( 1.000000000000000000, 0.000000000000000000, 0.000000000000000000 ) ) ;
#122 = CARTESIAN_POINT ( 'NONE',  ( 0.000000000000000000, 0.000000000000000000, 8.199999999999985079 ) ) ;
#123 = APPROVAL_ROLE ( '' ) ;
#124 = CIRCLE ( 'NONE', #92, 13.00000000000000178 ) ;
#125 = CYLINDRICAL_SURFACE ( 'NONE', #115, 10.00000000000000000 ) ;
#126 = LOCAL_TIME ( 11, 19, 43.00000000000000000, #44 ) ;
#127 = APPROVAL_DATE_TIME ( #234, #189 ) ;
#128 = ORIENTED_EDGE ( 'NONE', *, *, #285, .T. ) ;
#129 = ADVANCED_FACE ( 'NONE', ( #39 ), #84, .T. ) ;
#130 = ORIENTED_EDGE ( 'NONE', *, *, #114, .F. ) ;
#131 = CARTESIAN_POINT ( 'NONE',  ( 0.000000000000000000, 0.000000000000000000, 0.000000000000000000 ) ) ;
#132 = CIRCLE ( 'NONE', #51, 10.00000000000000000 ) ;
#133 = APPROVAL_STATUS ( 'not_yet_approved' ) ;
#134 = LINE ( 'NONE', #228, #140 ) ;
#135 = CC_DESIGN_PERSON_AND_ORGANIZATION_ASSIGNMENT ( #77, #81, ( #155 ) ) ;
#136 = FACE_OUTER_BOUND ( 'NONE', #266, .T. ) ;
#137 = CYLINDRICAL_SURFACE ( 'NONE', #264, 13.00000000000000178 ) ;
#138 = APPLICATION_CONTEXT ( 'configuration controlled 3d designs of mechanical parts and assemblies' ) ;
#139 = CARTESIAN_POINT ( 'NONE',  ( -10.00000000000000000, 0.000000000000000000, 8.199999999999985079 ) ) ;
#140 = VECTOR ( 'NONE', #109, 1000.000000000000000 ) ;
#141 = CC_DESIGN_APPROVAL ( #165, ( #155 ) ) ;
#142 = ADVANCED_FACE ( 'NONE', ( #110 ), #137, .T. ) ;
#143 = ORIENTED_EDGE ( 'NONE', *, *, #262, .T. ) ;
#144 =( LENGTH_UNIT ( ) NAMED_UNIT ( * ) SI_UNIT ( .MILLI., .METRE. ) );
#145 = AXIS2_PLACEMENT_3D ( 'NONE', #306, #281, #87 ) ;
#146 = CARTESIAN_POINT ( 'NONE',  ( -10.00000000000000000, 0.000000000000000000, 638.0000000000000000 ) ) ;
#147 =( NAMED_UNIT ( * ) SI_UNIT ( $, .STERADIAN. ) SOLID_ANGLE_UNIT ( ) );
#148 = EDGE_LOOP ( 'NONE', ( #274, #156, #191, #69 ) ) ;
#149 = ORIENTED_EDGE ( 'NONE', *, *, #286, .F. ) ;
#150 = ORIENTED_EDGE ( 'NONE', *, *, #74, .F. ) ;
#151 = FACE_OUTER_BOUND ( 'NONE', #15, .T. ) ;
#152 = DATE_AND_TIME ( #296, #279 ) ;
#153 = VERTEX_POINT ( 'NONE', #206 ) ;
#154 = EDGE_CURVE ( 'NONE', #7, #37, #124, .T. ) ;
#155 = PRODUCT_DEFINITION_FORMATION_WITH_SPECIFIED_SOURCE ( 'LIBOVOLNÝ', '', #179, .NOT_KNOWN. ) ;
#156 = ORIENTED_EDGE ( 'NONE', *, *, #17, .T. ) ;
#157 = DIRECTION ( 'NONE',  ( 0.000000000000000000, 0.000000000000000000, 1.000000000000000000 ) ) ;
#158 = DIRECTION ( 'NONE',  ( -1.000000000000000000, 0.000000000000000000, 0.000000000000000000 ) ) ;
#159 = PRODUCT_DEFINITION ( 'NEZNÁMÝ', '', #155, #13 ) ;
#160 = DATE_AND_TIME ( #246, #265 ) ;
#161 = DIRECTION ( 'NONE',  ( 1.000000000000000000, 0.000000000000000000, 0.000000000000000000 ) ) ;
#162 = CARTESIAN_POINT ( 'NONE',  ( 0.000000000000000000, 0.000000000000000000, 638.0000000000000000 ) ) ;
#163 = DIRECTION ( 'NONE',  ( 0.000000000000000000, 0.000000000000000000, 1.000000000000000000 ) ) ;
#164 = ORIENTED_EDGE ( 'NONE', *, *, #95, .T. ) ;
#165 = APPROVAL ( #171, 'NEURÈENÝ' ) ;
#166 = PERSON_AND_ORGANIZATION ( #35, #187 ) ;
#167 = DIRECTION ( 'NONE',  ( 1.000000000000000000, 0.000000000000000000, -0.000000000000000000 ) ) ;
#168 = PERSON_AND_ORGANIZATION ( #35, #187 ) ;
#169 = ORIENTED_EDGE ( 'NONE', *, *, #262, .F. ) ;
#170 = CARTESIAN_POINT ( 'NONE',  ( 0.000000000000000000, 0.000000000000000000, 0.000000000000000000 ) ) ;
#171 = APPROVAL_STATUS ( 'not_yet_approved' ) ;
#172 = DIRECTION ( 'NONE',  ( -0.000000000000000000, -0.000000000000000000, -1.000000000000000000 ) ) ;
#173 = APPLICATION_PROTOCOL_DEFINITION ( 'international standard', 'config_control_design', 1994, #138 ) ;
#174 = ADVANCED_FACE ( 'NONE', ( #54 ), #107, .T. ) ;
#175 = PLANE ( 'NONE',  #272 ) ;
#176 = AXIS2_PLACEMENT_3D ( 'NONE', #261, #36, #60 ) ;
#177 = COORDINATED_UNIVERSAL_TIME_OFFSET ( 1, 0, .AHEAD. ) ;
#178 = DIRECTION ( 'NONE',  ( 0.000000000000000000, 0.000000000000000000, 1.000000000000000000 ) ) ;
#179 = PRODUCT ( '7643', '7643', '', ( #6 ) ) ;
#180 = DIRECTION ( 'NONE',  ( 1.000000000000000000, 0.000000000000000000, 0.000000000000000000 ) ) ;
#181 = CC_DESIGN_PERSON_AND_ORGANIZATION_ASSIGNMENT ( #166, #270, ( #80 ) ) ;
#182 = CYLINDRICAL_SURFACE ( 'NONE', #229, 13.00000000000000178 ) ;
#183 = DIRECTION ( 'NONE',  ( 0.000000000000000000, 0.000000000000000000, 1.000000000000000000 ) ) ;
#184 = CARTESIAN_POINT ( 'NONE',  ( -13.00000000000000178, 0.000000000000000000, 8.000000000000000000 ) ) ;
#185 = CARTESIAN_POINT ( 'NONE',  ( 0.000000000000000000, 0.000000000000000000, 638.0000000000000000 ) ) ;
#186 = AXIS2_PLACEMENT_3D ( 'NONE', #104, #198, #255 ) ;
#187 = ORGANIZATION ( 'NEURÈENÝ', 'NEURÈENÝ', '' ) ;
#188 = APPLICATION_CONTEXT ( 'configuration controlled 3d designs of mechanical parts and assemblies' ) ;
#189 = APPROVAL ( #41, 'NEURÈENÝ' ) ;
#190 = DATE_AND_TIME ( #99, #126 ) ;
#191 = ORIENTED_EDGE ( 'NONE', *, *, #214, .F. ) ;
#192 = PERSON_AND_ORGANIZATION ( #35, #187 ) ;
#193 = EDGE_LOOP ( 'NONE', ( #244, #247 ) ) ;
#194 = PERSON_AND_ORGANIZATION_ROLE ( 'creator' ) ;
#195 = CARTESIAN_POINT ( 'NONE',  ( -10.20000000000000107, 1.249139735130300365E-15, 8.199999999999985079 ) ) ;
#196 = EDGE_CURVE ( 'NONE', #42, #7, #22, .T. ) ;
#197 = COORDINATED_UNIVERSAL_TIME_OFFSET ( 1, 0, .AHEAD. ) ;
#198 = DIRECTION ( 'NONE',  ( 0.000000000000000000, -1.000000000000000000, 0.000000000000000000 ) ) ;
#199 = ORIENTED_EDGE ( 'NONE', *, *, #17, .F. ) ;
#200 = AXIS2_PLACEMENT_3D ( 'NONE', #243, #43, #16 ) ;
#201 = CARTESIAN_POINT ( 'NONE',  ( 0.000000000000000000, 0.000000000000000000, 8.199999999999985079 ) ) ;
#202 = PRODUCT_DEFINITION_SHAPE ( 'NONE', 'NONE',  #159 ) ;
#203 = CIRCLE ( 'NONE', #145, 10.20000000000000107 ) ;
#204 = DATE_AND_TIME ( #45, #3 ) ;
#205 = FACE_OUTER_BOUND ( 'NONE', #148, .T. ) ;
#206 = CARTESIAN_POINT ( 'NONE',  ( -13.00000000000000178, 0.000000000000000000, 8.000000000000000000 ) ) ;
#207 = CARTESIAN_POINT ( 'NONE',  ( 0.000000000000000000, 0.000000000000000000, 0.000000000000000000 ) ) ;
#208 = AXIS2_PLACEMENT_3D ( 'NONE', #201, #305, #180 ) ;
#209 = ADVANCED_FACE ( 'NONE', ( #71 ), #182, .T. ) ;
#210 = AXIS2_PLACEMENT_3D ( 'NONE', #170, #66, #223 ) ;
#211 = CC_DESIGN_DATE_AND_TIME_ASSIGNMENT ( #152, #97, ( #159 ) ) ;
#212 = AXIS2_PLACEMENT_3D ( 'NONE', #2, #178, #24 ) ;
#213 =( GEOMETRIC_REPRESENTATION_CONTEXT ( 3 ) GLOBAL_UNCERTAINTY_ASSIGNED_CONTEXT ( ( #269 ) ) GLOBAL_UNIT_ASSIGNED_CONTEXT ( ( #144, #290, #147 ) ) REPRESENTATION_CONTEXT ( 'NONE', 'WORKASPACE' ) );
#214 = EDGE_CURVE ( 'NONE', #63, #241, #203, .T. ) ;
#215 = APPROVAL_PERSON_ORGANIZATION ( #168, #165, #96 ) ;
#216 = ORIENTED_EDGE ( 'NONE', *, *, #258, .F. ) ;
#217 = CARTESIAN_POINT ( 'NONE',  ( 0.000000000000000000, 0.000000000000000000, 8.199999999999985079 ) ) ;
#218 = ORIENTED_EDGE ( 'NONE', *, *, #196, .F. ) ;
#219 = EDGE_LOOP ( 'NONE', ( #271, #106 ) ) ;
#220 = CC_DESIGN_DATE_AND_TIME_ASSIGNMENT ( #160, #302, ( #80 ) ) ;
#221 = DIRECTION ( 'NONE',  ( 1.000000000000000000, 0.000000000000000000, 0.000000000000000000 ) ) ;
#222 = TOROIDAL_SURFACE ( 'NONE', #108, 10.20000000000000107, 0.2000000000000000111 ) ;
#223 = DIRECTION ( 'NONE',  ( 1.000000000000000000, 0.000000000000000000, 0.000000000000000000 ) ) ;
#224 = EDGE_LOOP ( 'NONE', ( #218, #216, #40, #164 ) ) ;
#225 = EDGE_LOOP ( 'NONE', ( #68, #47, #268, #46 ) ) ;
#226 = DIRECTION ( 'NONE',  ( 0.000000000000000000, 0.000000000000000000, 1.000000000000000000 ) ) ;
#227 = COORDINATED_UNIVERSAL_TIME_OFFSET ( 1, 0, .AHEAD. ) ;
#228 = CARTESIAN_POINT ( 'NONE',  ( 10.00000000000000000, 1.224646799147353256E-15, 638.0000000000000000 ) ) ;
#229 = AXIS2_PLACEMENT_3D ( 'NONE', #112, #230, #278 ) ;
#230 = DIRECTION ( 'NONE',  ( -0.000000000000000000, -0.000000000000000000, -1.000000000000000000 ) ) ;
#231 = ADVANCED_FACE ( 'NONE', ( #28 ), #248, .F. ) ;
#232 = CIRCLE ( 'NONE', #233, 0.2000000000000005107 ) ;
#233 = AXIS2_PLACEMENT_3D ( 'NONE', #195, #294, #240 ) ;
#234 = DATE_AND_TIME ( #103, #252 ) ;
#235 = CIRCLE ( 'NONE', #245, 10.00000000000000000 ) ;
#236 = CARTESIAN_POINT ( 'NONE',  ( 0.000000000000000000, 0.000000000000000000, 638.0000000000000000 ) ) ;
#237 = APPLICATION_PROTOCOL_DEFINITION ( 'international standard', 'config_control_design', 1994, #188 ) ;
#238 = CC_DESIGN_PERSON_AND_ORGANIZATION_ASSIGNMENT ( #38, #78, ( #179 ) ) ;
#239 = ORIENTED_EDGE ( 'NONE', *, *, #74, .T. ) ;
#240 = DIRECTION ( 'NONE',  ( -1.000000000000000000, 1.224646799147353207E-16, 0.000000000000000000 ) ) ;
#241 = VERTEX_POINT ( 'NONE', #249 ) ;
#242 = VERTEX_POINT ( 'NONE', #251 ) ;
#243 = CARTESIAN_POINT ( 'NONE',  ( 0.000000000000000000, 0.000000000000000000, 8.000000000000000000 ) ) ;
#244 = ORIENTED_EDGE ( 'NONE', *, *, #258, .T. ) ;
#245 = AXIS2_PLACEMENT_3D ( 'NONE', #85, #48, #161 ) ;
#246 = CALENDAR_DATE ( 2022, 20, 6 ) ;
#247 = ORIENTED_EDGE ( 'NONE', *, *, #57, .T. ) ;
#248 = PLANE ( 'NONE',  #5 ) ;
#249 = CARTESIAN_POINT ( 'NONE',  ( -10.20000000000000107, 1.249139735130300365E-15, 7.999999999999992895 ) ) ;
#250 = VECTOR ( 'NONE', #254, 1000.000000000000000 ) ;
#251 = CARTESIAN_POINT ( 'NONE',  ( 10.00000000000000000, 1.224646799147353256E-15, 8.199999999999985079 ) ) ;
#252 = LOCAL_TIME ( 11, 19, 43.00000000000000000, #10 ) ;
#253 = ADVANCED_FACE ( 'NONE', ( #205 ), #257, .F. ) ;
#254 = DIRECTION ( 'NONE',  ( -0.000000000000000000, -0.000000000000000000, -1.000000000000000000 ) ) ;
#255 = DIRECTION ( 'NONE',  ( 0.000000000000000000, 0.000000000000000000, -1.000000000000000000 ) ) ;
#256 = CIRCLE ( 'NONE', #210, 13.00000000000000178 ) ;
#257 = TOROIDAL_SURFACE ( 'NONE', #208, 10.20000000000000107, 0.2000000000000000111 ) ;
#258 = EDGE_CURVE ( 'NONE', #153, #42, #75, .T. ) ;
#259 = CARTESIAN_POINT ( 'NONE',  ( 0.000000000000000000, 0.000000000000000000, 0.000000000000000000 ) ) ;
#260 = VECTOR ( 'NONE', #1, 1000.000000000000000 ) ;
#261 = CARTESIAN_POINT ( 'NONE',  ( 0.000000000000000000, 0.000000000000000000, 8.000000000000000000 ) ) ;
#262 = EDGE_CURVE ( 'NONE', #242, #117, #32, .T. ) ;
#263 = DIRECTION ( 'NONE',  ( 1.000000000000000000, 0.000000000000000000, 0.000000000000000000 ) ) ;
#264 = AXIS2_PLACEMENT_3D ( 'NONE', #52, #307, #276 ) ;
#265 = LOCAL_TIME ( 11, 19, 43.00000000000000000, #177 ) ;
#266 = EDGE_LOOP ( 'NONE', ( #199, #169, #300, #33 ) ) ;
#267 = PERSON_AND_ORGANIZATION_ROLE ( 'creator' ) ;
#268 = ORIENTED_EDGE ( 'NONE', *, *, #154, .T. ) ;
#269 = UNCERTAINTY_MEASURE_WITH_UNIT (LENGTH_MEASURE( 1.000000000000000082E-05 ), #144, 'distance_accuracy_value', 'NONE');
#270 = PERSON_AND_ORGANIZATION_ROLE ( 'classification_officer' ) ;
#271 = ORIENTED_EDGE ( 'NONE', *, *, #214, .T. ) ;
#272 = AXIS2_PLACEMENT_3D ( 'NONE', #20, #79, #167 ) ;
#273 = APPROVAL_DATE_TIME ( #204, #118 ) ;
#274 = ORIENTED_EDGE ( 'NONE', *, *, #30, .F. ) ;
#275 = DIRECTION ( 'NONE',  ( 1.000000000000000000, 0.000000000000000000, 0.000000000000000000 ) ) ;
#276 = DIRECTION ( 'NONE',  ( -1.000000000000000000, 0.000000000000000000, 0.000000000000000000 ) ) ;
#277 = DIRECTION ( 'NONE',  ( 1.000000000000000000, 0.000000000000000000, -0.000000000000000000 ) ) ;
#278 = DIRECTION ( 'NONE',  ( -1.000000000000000000, 0.000000000000000000, 0.000000000000000000 ) ) ;
#279 = LOCAL_TIME ( 11, 19, 43.00000000000000000, #197 ) ;
#280 = CARTESIAN_POINT ( 'NONE',  ( 0.000000000000000000, 0.000000000000000000, 638.0000000000000000 ) ) ;
#281 = DIRECTION ( 'NONE',  ( -0.000000000000000000, -0.000000000000000000, -1.000000000000000000 ) ) ;
#282 = CIRCLE ( 'NONE', #186, 0.2000000000000005107 ) ;
#283 = VERTEX_POINT ( 'NONE', #70 ) ;
#284 = MANIFOLD_SOLID_BREP ( 'Zaoblit1', #67 ) ;
#285 = EDGE_CURVE ( 'NONE', #283, #19, #235, .T. ) ;
#286 = EDGE_CURVE ( 'NONE', #19, #242, #134, .T. ) ;
#287 = APPROVAL_DATE_TIME ( #190, #165 ) ;
#288 = ADVANCED_FACE ( 'NONE', ( #136 ), #222, .F. ) ;
#289 = ORIENTED_EDGE ( 'NONE', *, *, #154, .F. ) ;
#290 =( NAMED_UNIT ( * ) PLANE_ANGLE_UNIT ( ) SI_UNIT ( $, .RADIAN. ) );
#291 = CARTESIAN_POINT ( 'NONE',  ( 10.20000000000000107, 0.000000000000000000, 7.999999999999992895 ) ) ;
#292 = AXIS2_PLACEMENT_3D ( 'NONE', #162, #86, #158 ) ;
#293 = AXIS2_PLACEMENT_3D ( 'NONE', #89, #183, #275 ) ;
#294 = DIRECTION ( 'NONE',  ( 1.224646799147353207E-16, 1.000000000000000000, -0.000000000000000000 ) ) ;
#295 = CARTESIAN_POINT ( 'NONE',  ( -13.00000000000000178, 0.000000000000000000, 0.000000000000000000 ) ) ;
#296 = CALENDAR_DATE ( 2022, 20, 6 ) ;
#297 = EDGE_LOOP ( 'NONE', ( #128, #58 ) ) ;
#298 = DIRECTION ( 'NONE',  ( 0.000000000000000000, 0.000000000000000000, 1.000000000000000000 ) ) ;
#299 = PERSON_AND_ORGANIZATION ( #35, #187 ) ;
#300 = ORIENTED_EDGE ( 'NONE', *, *, #111, .T. ) ;
#301 = CIRCLE ( 'NONE', #200, 10.20000000000000107 ) ;
#302 = DATE_TIME_ROLE ( 'classification_date' ) ;
#303 = EDGE_LOOP ( 'NONE', ( #149, #21, #239, #65 ) ) ;
#304 = APPROVAL_PERSON_ORGANIZATION ( #299, #118, #50 ) ;
#305 = DIRECTION ( 'NONE',  ( 0.000000000000000000, 0.000000000000000000, 1.000000000000000000 ) ) ;
#306 = CARTESIAN_POINT ( 'NONE',  ( 0.000000000000000000, 0.000000000000000000, 8.000000000000000000 ) ) ;
#307 = DIRECTION ( 'NONE',  ( -0.000000000000000000, -0.000000000000000000, -1.000000000000000000 ) ) ;
ENDSEC;
END-ISO-10303-21;
