ISO-10303-21;
HEADER;
FILE_DESCRIPTION (( 'STEP AP203' ),
    '1' );
FILE_NAME ('c691.STEP',
    '2022-06-20T09:33:23',
    ( '' ),
    ( '' ),
    'SwSTEP 2.0',
    'SolidWorks 2019',
    '' );
FILE_SCHEMA (( 'CONFIG_CONTROL_DESIGN' ));
ENDSEC;

DATA;
#1 = APPROVAL ( #235, 'NEURÈENÝ' ) ;
#2 = APPLICATION_PROTOCOL_DEFINITION ( 'international standard', 'config_control_design', 1994, #38 ) ;
#3 = VERTEX_POINT ( 'NONE', #272 ) ;
#4 = DIRECTION ( 'NONE',  ( 1.000000000000000000, 0.000000000000000000, 0.000000000000000000 ) ) ;
#5 = ORIENTED_EDGE ( 'NONE', *, *, #216, .F. ) ;
#6 = DIRECTION ( 'NONE',  ( 1.000000000000000000, 0.000000000000000000, 0.000000000000000000 ) ) ;
#7 = DATE_AND_TIME ( #217, #183 ) ;
#8 = APPROVAL_PERSON_ORGANIZATION ( #57, #54, #135 ) ;
#9 = AXIS2_PLACEMENT_3D ( 'NONE', #131, #109, #243 ) ;
#10 = CIRCLE ( 'NONE', #196, 6.200000000000001066 ) ;
#11 = AXIS2_PLACEMENT_3D ( 'NONE', #85, #88, #139 ) ;
#12 = CARTESIAN_POINT ( 'NONE',  ( -9.000000000000000000, 0.000000000000000000, 7.000000000000000000 ) ) ;
#13 = VERTEX_POINT ( 'NONE', #153 ) ;
#14 = ORIENTED_EDGE ( 'NONE', *, *, #220, .F. ) ;
#15 = EDGE_LOOP ( 'NONE', ( #290, #55 ) ) ;
#16 = ORIENTED_EDGE ( 'NONE', *, *, #102, .T. ) ;
#17 = LINE ( 'NONE', #211, #145 ) ;
#18 = AXIS2_PLACEMENT_3D ( 'NONE', #28, #45, #4 ) ;
#19 = AXIS2_PLACEMENT_3D ( 'NONE', #42, #277, #162 ) ;
#20 = DIRECTION ( 'NONE',  ( 1.000000000000000000, 0.000000000000000000, 0.000000000000000000 ) ) ;
#21 = CARTESIAN_POINT ( 'NONE',  ( 6.000000000000000888, 7.347880794884120722E-16, 167.0000000000000000 ) ) ;
#22 = CIRCLE ( 'NONE', #103, 6.200000000000001066 ) ;
#23 = EDGE_CURVE ( 'NONE', #206, #137, #279, .T. ) ;
#24 = DIRECTION ( 'NONE',  ( -0.000000000000000000, -0.000000000000000000, -1.000000000000000000 ) ) ;
#25 = CARTESIAN_POINT ( 'NONE',  ( 0.000000000000000000, 0.000000000000000000, 0.000000000000000000 ) ) ;
#26 = ORIENTED_EDGE ( 'NONE', *, *, #23, .F. ) ;
#27 = AXIS2_PLACEMENT_3D ( 'NONE', #155, #266, #180 ) ;
#28 = CARTESIAN_POINT ( 'NONE',  ( 0.000000000000000000, 0.000000000000000000, 167.0000000000000000 ) ) ;
#29 = VECTOR ( 'NONE', #115, 1000.000000000000000 ) ;
#30 = ORIENTED_EDGE ( 'NONE', *, *, #233, .F. ) ;
#31 = APPROVAL_ROLE ( '' ) ;
#32 = ORIENTED_EDGE ( 'NONE', *, *, #168, .F. ) ;
#33 = ORIENTED_EDGE ( 'NONE', *, *, #212, .F. ) ;
#34 = AXIS2_PLACEMENT_3D ( 'NONE', #25, #69, #6 ) ;
#35 = FACE_OUTER_BOUND ( 'NONE', #94, .T. ) ;
#36 = ADVANCED_FACE ( 'NONE', ( #106 ), #37, .T. ) ;
#37 = PLANE ( 'NONE',  #274 ) ;
#38 = APPLICATION_CONTEXT ( 'configuration controlled 3d designs of mechanical parts and assemblies' ) ;
#39 = ORIENTED_EDGE ( 'NONE', *, *, #216, .T. ) ;
#40 = DIRECTION ( 'NONE',  ( 0.000000000000000000, 0.000000000000000000, 1.000000000000000000 ) ) ;
#41 = CARTESIAN_POINT ( 'NONE',  ( 9.000000000000000000, 1.102182119232617714E-15, 0.000000000000000000 ) ) ;
#42 = CARTESIAN_POINT ( 'NONE',  ( 0.000000000000000000, 0.000000000000000000, 7.200000000000011724 ) ) ;
#43 = DIRECTION ( 'NONE',  ( -0.000000000000000000, -0.000000000000000000, -1.000000000000000000 ) ) ;
#44 = EDGE_CURVE ( 'NONE', #13, #51, #70, .T. ) ;
#45 = DIRECTION ( 'NONE',  ( 0.000000000000000000, 0.000000000000000000, 1.000000000000000000 ) ) ;
#46 = CARTESIAN_POINT ( 'NONE',  ( 0.000000000000000000, 0.000000000000000000, 167.0000000000000000 ) ) ;
#47 = EDGE_LOOP ( 'NONE', ( #262, #258, #169, #247 ) ) ;
#48 = ADVANCED_FACE ( 'NONE', ( #245 ), #203, .T. ) ;
#49 = LOCAL_TIME ( 11, 33, 23.00000000000000000, #178 ) ;
#50 = PERSON_AND_ORGANIZATION_ROLE ( 'creator' ) ;
#51 = VERTEX_POINT ( 'NONE', #61 ) ;
#52 = PERSON_AND_ORGANIZATION ( #292, #189 ) ;
#53 = ORIENTED_EDGE ( 'NONE', *, *, #102, .F. ) ;
#54 = APPROVAL ( #176, 'NEURÈENÝ' ) ;
#55 = ORIENTED_EDGE ( 'NONE', *, *, #291, .T. ) ;
#56 = VECTOR ( 'NONE', #304, 1000.000000000000000 ) ;
#57 = PERSON_AND_ORGANIZATION ( #292, #189 ) ;
#58 = CARTESIAN_POINT ( 'NONE',  ( 0.000000000000000000, 0.000000000000000000, 0.000000000000000000 ) ) ;
#59 = CALENDAR_DATE ( 2022, 20, 6 ) ;
#60 = CARTESIAN_POINT ( 'NONE',  ( 0.000000000000000000, 0.000000000000000000, 0.000000000000000000 ) ) ;
#61 = CARTESIAN_POINT ( 'NONE',  ( 6.200000000000001066, 0.000000000000000000, 7.000000000000006217 ) ) ;
#62 = CARTESIAN_POINT ( 'NONE',  ( 0.000000000000000000, 0.000000000000000000, 7.200000000000011724 ) ) ;
#63 = DESIGN_CONTEXT ( 'detailed design', #260, 'design' ) ;
#64 = CARTESIAN_POINT ( 'NONE',  ( 0.000000000000000000, 0.000000000000000000, 0.000000000000000000 ) ) ;
#65 = CARTESIAN_POINT ( 'NONE',  ( -9.000000000000000000, 0.000000000000000000, 7.000000000000000000 ) ) ;
#66 = CIRCLE ( 'NONE', #248, 9.000000000000000000 ) ;
#67 = DIRECTION ( 'NONE',  ( -0.000000000000000000, -0.000000000000000000, -1.000000000000000000 ) ) ;
#68 = DIRECTION ( 'NONE',  ( 1.000000000000000000, 0.000000000000000000, 0.000000000000000000 ) ) ;
#69 = DIRECTION ( 'NONE',  ( 0.000000000000000000, 0.000000000000000000, 1.000000000000000000 ) ) ;
#70 = CIRCLE ( 'NONE', #27, 0.1999999999999996503 ) ;
#71 = DIRECTION ( 'NONE',  ( 1.000000000000000000, 0.000000000000000000, 0.000000000000000000 ) ) ;
#72 = CARTESIAN_POINT ( 'NONE',  ( 9.000000000000000000, 1.102182119232617714E-15, 7.000000000000000000 ) ) ;
#73 = ORIENTED_EDGE ( 'NONE', *, *, #305, .T. ) ;
#74 = PERSON_AND_ORGANIZATION_ROLE ( 'creator' ) ;
#75 = DATE_TIME_ROLE ( 'classification_date' ) ;
#76 = CARTESIAN_POINT ( 'NONE',  ( 0.000000000000000000, 0.000000000000000000, 7.000000000000000000 ) ) ;
#77 = PLANE ( 'NONE',  #118 ) ;
#78 = PLANE ( 'NONE',  #225 ) ;
#79 = CC_DESIGN_PERSON_AND_ORGANIZATION_ASSIGNMENT ( #197, #74, ( #83 ) ) ;
#80 = AXIS2_PLACEMENT_3D ( 'NONE', #252, #229, #186 ) ;
#81 = DIRECTION ( 'NONE',  ( 0.000000000000000000, 0.000000000000000000, 1.000000000000000000 ) ) ;
#82 = DIRECTION ( 'NONE',  ( 0.000000000000000000, 0.000000000000000000, 1.000000000000000000 ) ) ;
#83 = PRODUCT_DEFINITION_FORMATION_WITH_SPECIFIED_SOURCE ( 'LIBOVOLNÝ', '', #111, .NOT_KNOWN. ) ;
#84 = AXIS2_PLACEMENT_3D ( 'NONE', #295, #249, #273 ) ;
#85 = CARTESIAN_POINT ( 'NONE',  ( 0.000000000000000000, 0.000000000000000000, 167.0000000000000000 ) ) ;
#86 = DIRECTION ( 'NONE',  ( -0.000000000000000000, -0.000000000000000000, -1.000000000000000000 ) ) ;
#87 = DIRECTION ( 'NONE',  ( -1.000000000000000000, 1.224646799147353454E-16, 0.000000000000000000 ) ) ;
#88 = DIRECTION ( 'NONE',  ( -0.000000000000000000, -0.000000000000000000, -1.000000000000000000 ) ) ;
#89 = ADVANCED_FACE ( 'NONE', ( #297 ), #193, .F. ) ;
#90 = CARTESIAN_POINT ( 'NONE',  ( 0.000000000000000000, 0.000000000000000000, 7.000000000000000000 ) ) ;
#91 = ADVANCED_BREP_SHAPE_REPRESENTATION ( 'c691', ( #219, #34 ), #284 ) ;
#92 =( NAMED_UNIT ( * ) PLANE_ANGLE_UNIT ( ) SI_UNIT ( $, .RADIAN. ) );
#93 = PERSON_AND_ORGANIZATION ( #292, #189 ) ;
#94 = EDGE_LOOP ( 'NONE', ( #39, #227 ) ) ;
#95 = CIRCLE ( 'NONE', #269, 9.000000000000000000 ) ;
#96 =( NAMED_UNIT ( * ) SI_UNIT ( $, .STERADIAN. ) SOLID_ANGLE_UNIT ( ) );
#97 = ORIENTED_EDGE ( 'NONE', *, *, #160, .T. ) ;
#98 = PERSON_AND_ORGANIZATION ( #292, #189 ) ;
#99 = APPROVAL_DATE_TIME ( #7, #1 ) ;
#100 = APPROVAL_PERSON_ORGANIZATION ( #149, #1, #31 ) ;
#101 = CLOSED_SHELL ( 'NONE', ( #89, #179, #241, #48, #108, #138, #188, #36, #263 ) ) ;
#102 = EDGE_CURVE ( 'NONE', #195, #13, #107, .T. ) ;
#103 = AXIS2_PLACEMENT_3D ( 'NONE', #250, #67, #140 ) ;
#104 = DATE_AND_TIME ( #267, #198 ) ;
#105 = CARTESIAN_POINT ( 'NONE',  ( -9.000000000000000000, 0.000000000000000000, 0.000000000000000000 ) ) ;
#106 = FACE_OUTER_BOUND ( 'NONE', #15, .T. ) ;
#107 = CIRCLE ( 'NONE', #301, 6.000000000000000888 ) ;
#108 = ADVANCED_FACE ( 'NONE', ( #132, #35 ), #78, .T. ) ;
#109 = DIRECTION ( 'NONE',  ( -0.000000000000000000, -0.000000000000000000, -1.000000000000000000 ) ) ;
#110 = VERTEX_POINT ( 'NONE', #12 ) ;
#111 = PRODUCT ( 'c691', 'c691', '', ( #288 ) ) ;
#112 = CARTESIAN_POINT ( 'NONE',  ( -6.000000000000000888, 0.000000000000000000, 167.0000000000000000 ) ) ;
#113 = CC_DESIGN_DATE_AND_TIME_ASSIGNMENT ( #286, #213, ( #192 ) ) ;
#114 = CIRCLE ( 'NONE', #210, 9.000000000000000000 ) ;
#115 = DIRECTION ( 'NONE',  ( -0.000000000000000000, -0.000000000000000000, -1.000000000000000000 ) ) ;
#116 = PRODUCT_RELATED_PRODUCT_CATEGORY ( 'detail', '', ( #111 ) ) ;
#117 = DIRECTION ( 'NONE',  ( 1.000000000000000000, 0.000000000000000000, 0.000000000000000000 ) ) ;
#118 = AXIS2_PLACEMENT_3D ( 'NONE', #60, #143, #234 ) ;
#119 = FACE_OUTER_BOUND ( 'NONE', #298, .T. ) ;
#120 = DIRECTION ( 'NONE',  ( 0.000000000000000000, 0.000000000000000000, 1.000000000000000000 ) ) ;
#121 = VERTEX_POINT ( 'NONE', #181 ) ;
#122 = APPROVAL ( #239, 'NEURÈENÝ' ) ;
#123 = ORIENTED_EDGE ( 'NONE', *, *, #171, .F. ) ;
#124 = APPROVAL_ROLE ( '' ) ;
#125 = EDGE_LOOP ( 'NONE', ( #173, #73 ) ) ;
#126 = COORDINATED_UNIVERSAL_TIME_OFFSET ( 1, 0, .AHEAD. ) ;
#127 = LOCAL_TIME ( 11, 33, 23.00000000000000000, #151 ) ;
#128 = ORIENTED_EDGE ( 'NONE', *, *, #168, .T. ) ;
#129 = DIRECTION ( 'NONE',  ( 0.000000000000000000, 0.000000000000000000, 1.000000000000000000 ) ) ;
#130 = DATE_AND_TIME ( #59, #49 ) ;
#131 = CARTESIAN_POINT ( 'NONE',  ( 0.000000000000000000, 0.000000000000000000, 7.000000000000000000 ) ) ;
#132 = FACE_BOUND ( 'NONE', #125, .T. ) ;
#133 = AXIS2_PLACEMENT_3D ( 'NONE', #58, #81, #200 ) ;
#134 = APPROVAL_PERSON_ORGANIZATION ( #98, #122, #124 ) ;
#135 = APPROVAL_ROLE ( '' ) ;
#136 = ORIENTED_EDGE ( 'NONE', *, *, #44, .F. ) ;
#137 = VERTEX_POINT ( 'NONE', #105 ) ;
#138 = ADVANCED_FACE ( 'NONE', ( #202 ), #77, .F. ) ;
#139 = DIRECTION ( 'NONE',  ( -1.000000000000000000, 0.000000000000000000, 0.000000000000000000 ) ) ;
#140 = DIRECTION ( 'NONE',  ( 1.000000000000000000, 0.000000000000000000, 0.000000000000000000 ) ) ;
#141 = DIRECTION ( 'NONE',  ( -1.000000000000000000, 0.000000000000000000, 0.000000000000000000 ) ) ;
#142 = CC_DESIGN_APPROVAL ( #122, ( #192 ) ) ;
#143 = DIRECTION ( 'NONE',  ( 0.000000000000000000, 0.000000000000000000, 1.000000000000000000 ) ) ;
#144 = AXIS2_PLACEMENT_3D ( 'NONE', #259, #120, #256 ) ;
#145 = VECTOR ( 'NONE', #302, 1000.000000000000000 ) ;
#146 = PERSON_AND_ORGANIZATION_ROLE ( 'design_owner' ) ;
#147 = VERTEX_POINT ( 'NONE', #300 ) ;
#148 = TOROIDAL_SURFACE ( 'NONE', #144, 6.200000000000001066, 0.2000000000000000111 ) ;
#149 = PERSON_AND_ORGANIZATION ( #292, #189 ) ;
#150 = EDGE_LOOP ( 'NONE', ( #218, #271, #182, #123 ) ) ;
#151 = COORDINATED_UNIVERSAL_TIME_OFFSET ( 1, 0, .AHEAD. ) ;
#152 = ORIENTED_EDGE ( 'NONE', *, *, #275, .F. ) ;
#153 = CARTESIAN_POINT ( 'NONE',  ( 6.000000000000000888, 7.347880794884120722E-16, 7.200000000000011724 ) ) ;
#154 = CIRCLE ( 'NONE', #306, 6.000000000000000888 ) ;
#155 = CARTESIAN_POINT ( 'NONE',  ( 6.200000000000001066, 0.000000000000000000, 7.200000000000011724 ) ) ;
#156 = EDGE_LOOP ( 'NONE', ( #30, #228, #265, #32 ) ) ;
#157 = SHAPE_DEFINITION_REPRESENTATION ( #242, #91 ) ;
#158 = ORIENTED_EDGE ( 'NONE', *, *, #204, .F. ) ;
#159 = AXIS2_PLACEMENT_3D ( 'NONE', #281, #43, #141 ) ;
#160 = EDGE_CURVE ( 'NONE', #137, #206, #114, .T. ) ;
#161 = DIRECTION ( 'NONE',  ( 1.000000000000000000, 0.000000000000000000, -0.000000000000000000 ) ) ;
#162 = DIRECTION ( 'NONE',  ( 1.000000000000000000, 0.000000000000000000, 0.000000000000000000 ) ) ;
#163 = UNCERTAINTY_MEASURE_WITH_UNIT (LENGTH_MEASURE( 1.000000000000000082E-05 ), #215, 'distance_accuracy_value', 'NONE');
#164 = LINE ( 'NONE', #65, #56 ) ;
#165 = CARTESIAN_POINT ( 'NONE',  ( -6.000000000000000888, 0.000000000000000000, 7.200000000000011724 ) ) ;
#166 = CIRCLE ( 'NONE', #19, 6.000000000000000888 ) ;
#167 = SECURITY_CLASSIFICATION ( '', '', #199 ) ;
#168 = EDGE_CURVE ( 'NONE', #110, #137, #164, .T. ) ;
#169 = ORIENTED_EDGE ( 'NONE', *, *, #44, .T. ) ;
#170 = DATE_AND_TIME ( #175, #127 ) ;
#171 = EDGE_CURVE ( 'NONE', #121, #195, #254, .T. ) ;
#172 = CARTESIAN_POINT ( 'NONE',  ( 0.000000000000000000, 0.000000000000000000, 7.000000000000000000 ) ) ;
#173 = ORIENTED_EDGE ( 'NONE', *, *, #204, .T. ) ;
#174 = CC_DESIGN_SECURITY_CLASSIFICATION ( #167, ( #83 ) ) ;
#175 = CALENDAR_DATE ( 2022, 20, 6 ) ;
#176 = APPROVAL_STATUS ( 'not_yet_approved' ) ;
#177 = CARTESIAN_POINT ( 'NONE',  ( 0.000000000000000000, 0.000000000000000000, 167.0000000000000000 ) ) ;
#178 = COORDINATED_UNIVERSAL_TIME_OFFSET ( 1, 0, .AHEAD. ) ;
#179 = ADVANCED_FACE ( 'NONE', ( #278 ), #303, .T. ) ;
#180 = DIRECTION ( 'NONE',  ( 0.000000000000000000, 0.000000000000000000, -1.000000000000000000 ) ) ;
#181 = CARTESIAN_POINT ( 'NONE',  ( -6.000000000000000888, 0.000000000000000000, 167.0000000000000000 ) ) ;
#182 = ORIENTED_EDGE ( 'NONE', *, *, #201, .T. ) ;
#183 = LOCAL_TIME ( 11, 33, 23.00000000000000000, #126 ) ;
#184 = CYLINDRICAL_SURFACE ( 'NONE', #80, 6.000000000000000888 ) ;
#185 = AXIS2_PLACEMENT_3D ( 'NONE', #307, #208, #87 ) ;
#186 = DIRECTION ( 'NONE',  ( -1.000000000000000000, 0.000000000000000000, 0.000000000000000000 ) ) ;
#187 = DIRECTION ( 'NONE',  ( 0.000000000000000000, 0.000000000000000000, 1.000000000000000000 ) ) ;
#188 = ADVANCED_FACE ( 'NONE', ( #119 ), #184, .T. ) ;
#189 = ORGANIZATION ( 'NEURÈENÝ', 'NEURÈENÝ', '' ) ;
#190 = CYLINDRICAL_SURFACE ( 'NONE', #159, 9.000000000000000000 ) ;
#191 = LINE ( 'NONE', #21, #29 ) ;
#192 = PRODUCT_DEFINITION ( 'NEZNÁMÝ', '', #83, #63 ) ;
#193 = TOROIDAL_SURFACE ( 'NONE', #84, 6.200000000000001066, 0.2000000000000000111 ) ;
#194 = ORIENTED_EDGE ( 'NONE', *, *, #171, .T. ) ;
#195 = VERTEX_POINT ( 'NONE', #165 ) ;
#196 = AXIS2_PLACEMENT_3D ( 'NONE', #172, #24, #71 ) ;
#197 = PERSON_AND_ORGANIZATION ( #292, #189 ) ;
#198 = LOCAL_TIME ( 11, 33, 23.00000000000000000, #246 ) ;
#199 = SECURITY_CLASSIFICATION_LEVEL ( 'unclassified' ) ;
#200 = DIRECTION ( 'NONE',  ( 1.000000000000000000, 0.000000000000000000, 0.000000000000000000 ) ) ;
#201 = EDGE_CURVE ( 'NONE', #13, #195, #166, .T. ) ;
#202 = FACE_OUTER_BOUND ( 'NONE', #287, .T. ) ;
#203 = CYLINDRICAL_SURFACE ( 'NONE', #9, 9.000000000000000000 ) ;
#204 = EDGE_CURVE ( 'NONE', #51, #147, #22, .T. ) ;
#205 = PERSON_AND_ORGANIZATION_ROLE ( 'design_supplier' ) ;
#206 = VERTEX_POINT ( 'NONE', #41 ) ;
#207 = CC_DESIGN_PERSON_AND_ORGANIZATION_ASSIGNMENT ( #270, #293, ( #167 ) ) ;
#208 = DIRECTION ( 'NONE',  ( 1.224646799147353207E-16, 1.000000000000000000, -0.000000000000000000 ) ) ;
#209 = FACE_OUTER_BOUND ( 'NONE', #156, .T. ) ;
#210 = AXIS2_PLACEMENT_3D ( 'NONE', #64, #253, #68 ) ;
#211 = CARTESIAN_POINT ( 'NONE',  ( 9.000000000000000000, 1.102182119232617714E-15, 7.000000000000000000 ) ) ;
#212 = EDGE_CURVE ( 'NONE', #268, #206, #17, .T. ) ;
#213 = DATE_TIME_ROLE ( 'creation_date' ) ;
#214 = APPLICATION_PROTOCOL_DEFINITION ( 'international standard', 'config_control_design', 1994, #260 ) ;
#215 =( LENGTH_UNIT ( ) NAMED_UNIT ( * ) SI_UNIT ( .MILLI., .METRE. ) );
#216 = EDGE_CURVE ( 'NONE', #110, #268, #95, .T. ) ;
#217 = CALENDAR_DATE ( 2022, 20, 6 ) ;
#218 = ORIENTED_EDGE ( 'NONE', *, *, #291, .F. ) ;
#219 = MANIFOLD_SOLID_BREP ( 'Zaoblit1', #101 ) ;
#220 = EDGE_CURVE ( 'NONE', #3, #13, #191, .T. ) ;
#221 = DIRECTION ( 'NONE',  ( 1.000000000000000000, 0.000000000000000000, -0.000000000000000000 ) ) ;
#222 = APPROVAL_DATE_TIME ( #104, #54 ) ;
#223 = ORIENTED_EDGE ( 'NONE', *, *, #160, .F. ) ;
#224 = EDGE_CURVE ( 'NONE', #195, #147, #276, .T. ) ;
#225 = AXIS2_PLACEMENT_3D ( 'NONE', #76, #129, #221 ) ;
#226 = CC_DESIGN_APPROVAL ( #54, ( #167 ) ) ;
#227 = ORIENTED_EDGE ( 'NONE', *, *, #233, .T. ) ;
#228 = ORIENTED_EDGE ( 'NONE', *, *, #212, .T. ) ;
#229 = DIRECTION ( 'NONE',  ( -0.000000000000000000, -0.000000000000000000, -1.000000000000000000 ) ) ;
#230 = VECTOR ( 'NONE', #86, 1000.000000000000000 ) ;
#231 = CC_DESIGN_PERSON_AND_ORGANIZATION_ASSIGNMENT ( #93, #205, ( #83 ) ) ;
#232 = DIRECTION ( 'NONE',  ( 0.000000000000000000, 0.000000000000000000, 1.000000000000000000 ) ) ;
#233 = EDGE_CURVE ( 'NONE', #268, #110, #66, .T. ) ;
#234 = DIRECTION ( 'NONE',  ( 1.000000000000000000, 0.000000000000000000, -0.000000000000000000 ) ) ;
#235 = APPROVAL_STATUS ( 'not_yet_approved' ) ;
#236 = DIRECTION ( 'NONE',  ( 1.000000000000000000, 0.000000000000000000, 0.000000000000000000 ) ) ;
#237 = EDGE_LOOP ( 'NONE', ( #33, #5, #128, #97 ) ) ;
#238 = APPROVAL_DATE_TIME ( #170, #122 ) ;
#239 = APPROVAL_STATUS ( 'not_yet_approved' ) ;
#240 = ORIENTED_EDGE ( 'NONE', *, *, #224, .T. ) ;
#241 = ADVANCED_FACE ( 'NONE', ( #209 ), #190, .T. ) ;
#242 = PRODUCT_DEFINITION_SHAPE ( 'NONE', 'NONE',  #192 ) ;
#243 = DIRECTION ( 'NONE',  ( -1.000000000000000000, 0.000000000000000000, 0.000000000000000000 ) ) ;
#244 = CC_DESIGN_APPROVAL ( #1, ( #83 ) ) ;
#245 = FACE_OUTER_BOUND ( 'NONE', #237, .T. ) ;
#246 = COORDINATED_UNIVERSAL_TIME_OFFSET ( 1, 0, .AHEAD. ) ;
#247 = ORIENTED_EDGE ( 'NONE', *, *, #305, .F. ) ;
#248 = AXIS2_PLACEMENT_3D ( 'NONE', #90, #187, #117 ) ;
#249 = DIRECTION ( 'NONE',  ( 0.000000000000000000, 0.000000000000000000, 1.000000000000000000 ) ) ;
#250 = CARTESIAN_POINT ( 'NONE',  ( 0.000000000000000000, 0.000000000000000000, 7.000000000000000000 ) ) ;
#251 = CARTESIAN_POINT ( 'NONE',  ( 0.000000000000000000, 0.000000000000000000, 7.000000000000000000 ) ) ;
#252 = CARTESIAN_POINT ( 'NONE',  ( 0.000000000000000000, 0.000000000000000000, 167.0000000000000000 ) ) ;
#253 = DIRECTION ( 'NONE',  ( 0.000000000000000000, 0.000000000000000000, 1.000000000000000000 ) ) ;
#254 = LINE ( 'NONE', #112, #230 ) ;
#255 = CIRCLE ( 'NONE', #18, 6.000000000000000888 ) ;
#256 = DIRECTION ( 'NONE',  ( 1.000000000000000000, 0.000000000000000000, 0.000000000000000000 ) ) ;
#257 = CC_DESIGN_PERSON_AND_ORGANIZATION_ASSIGNMENT ( #52, #50, ( #192 ) ) ;
#258 = ORIENTED_EDGE ( 'NONE', *, *, #201, .F. ) ;
#259 = CARTESIAN_POINT ( 'NONE',  ( 0.000000000000000000, 0.000000000000000000, 7.200000000000011724 ) ) ;
#260 = APPLICATION_CONTEXT ( 'configuration controlled 3d designs of mechanical parts and assemblies' ) ;
#261 = PERSON_AND_ORGANIZATION ( #292, #189 ) ;
#262 = ORIENTED_EDGE ( 'NONE', *, *, #224, .F. ) ;
#263 = ADVANCED_FACE ( 'NONE', ( #282 ), #148, .F. ) ;
#264 = COORDINATED_UNIVERSAL_TIME_OFFSET ( 1, 0, .AHEAD. ) ;
#265 = ORIENTED_EDGE ( 'NONE', *, *, #23, .T. ) ;
#266 = DIRECTION ( 'NONE',  ( 0.000000000000000000, -1.000000000000000000, 0.000000000000000000 ) ) ;
#267 = CALENDAR_DATE ( 2022, 20, 6 ) ;
#268 = VERTEX_POINT ( 'NONE', #72 ) ;
#269 = AXIS2_PLACEMENT_3D ( 'NONE', #251, #232, #20 ) ;
#270 = PERSON_AND_ORGANIZATION ( #292, #189 ) ;
#271 = ORIENTED_EDGE ( 'NONE', *, *, #220, .T. ) ;
#272 = CARTESIAN_POINT ( 'NONE',  ( 6.000000000000000888, 7.347880794884120722E-16, 167.0000000000000000 ) ) ;
#273 = DIRECTION ( 'NONE',  ( 1.000000000000000000, 0.000000000000000000, 0.000000000000000000 ) ) ;
#274 = AXIS2_PLACEMENT_3D ( 'NONE', #177, #82, #161 ) ;
#275 = EDGE_CURVE ( 'NONE', #121, #3, #154, .T. ) ;
#276 = CIRCLE ( 'NONE', #185, 0.1999999999999996503 ) ;
#277 = DIRECTION ( 'NONE',  ( 0.000000000000000000, 0.000000000000000000, 1.000000000000000000 ) ) ;
#278 = FACE_OUTER_BOUND ( 'NONE', #150, .T. ) ;
#279 = CIRCLE ( 'NONE', #133, 9.000000000000000000 ) ;
#280 = LOCAL_TIME ( 11, 33, 23.00000000000000000, #264 ) ;
#281 = CARTESIAN_POINT ( 'NONE',  ( 0.000000000000000000, 0.000000000000000000, 7.000000000000000000 ) ) ;
#282 = FACE_OUTER_BOUND ( 'NONE', #47, .T. ) ;
#283 = CALENDAR_DATE ( 2022, 20, 6 ) ;
#284 =( GEOMETRIC_REPRESENTATION_CONTEXT ( 3 ) GLOBAL_UNCERTAINTY_ASSIGNED_CONTEXT ( ( #163 ) ) GLOBAL_UNIT_ASSIGNED_CONTEXT ( ( #215, #92, #96 ) ) REPRESENTATION_CONTEXT ( 'NONE', 'WORKASPACE' ) );
#285 = CC_DESIGN_DATE_AND_TIME_ASSIGNMENT ( #130, #75, ( #167 ) ) ;
#286 = DATE_AND_TIME ( #283, #280 ) ;
#287 = EDGE_LOOP ( 'NONE', ( #223, #26 ) ) ;
#288 = MECHANICAL_CONTEXT ( 'NONE', #38, 'mechanical' ) ;
#289 = DIRECTION ( 'NONE',  ( 0.000000000000000000, 0.000000000000000000, 1.000000000000000000 ) ) ;
#290 = ORIENTED_EDGE ( 'NONE', *, *, #275, .T. ) ;
#291 = EDGE_CURVE ( 'NONE', #3, #121, #255, .T. ) ;
#292 = PERSON ( 'NEURÈENÝ', 'NEURÈENÝ', 'NEURÈENÝ', ('NEURÈENÝ'), ('NEURÈENÝ'), ('NEURÈENÝ') ) ;
#293 = PERSON_AND_ORGANIZATION_ROLE ( 'classification_officer' ) ;
#294 = DIRECTION ( 'NONE',  ( 1.000000000000000000, 0.000000000000000000, 0.000000000000000000 ) ) ;
#295 = CARTESIAN_POINT ( 'NONE',  ( 0.000000000000000000, 0.000000000000000000, 7.200000000000011724 ) ) ;
#296 = EDGE_LOOP ( 'NONE', ( #53, #240, #158, #136 ) ) ;
#297 = FACE_OUTER_BOUND ( 'NONE', #296, .T. ) ;
#298 = EDGE_LOOP ( 'NONE', ( #14, #152, #194, #16 ) ) ;
#299 = CC_DESIGN_PERSON_AND_ORGANIZATION_ASSIGNMENT ( #261, #146, ( #111 ) ) ;
#300 = CARTESIAN_POINT ( 'NONE',  ( -6.200000000000001066, 7.592810154713590821E-16, 7.000000000000006217 ) ) ;
#301 = AXIS2_PLACEMENT_3D ( 'NONE', #62, #40, #294 ) ;
#302 = DIRECTION ( 'NONE',  ( -0.000000000000000000, -0.000000000000000000, -1.000000000000000000 ) ) ;
#303 = CYLINDRICAL_SURFACE ( 'NONE', #11, 6.000000000000000888 ) ;
#304 = DIRECTION ( 'NONE',  ( -0.000000000000000000, -0.000000000000000000, -1.000000000000000000 ) ) ;
#305 = EDGE_CURVE ( 'NONE', #147, #51, #10, .T. ) ;
#306 = AXIS2_PLACEMENT_3D ( 'NONE', #46, #289, #236 ) ;
#307 = CARTESIAN_POINT ( 'NONE',  ( -6.200000000000001066, 7.592810154713590821E-16, 7.200000000000011724 ) ) ;
ENDSEC;
END-ISO-10303-21;
