ISO-10303-21;
HEADER;
FILE_DESCRIPTION (( 'STEP AP203' ),
    '1' );
FILE_NAME ('6829.STEP',
    '2022-06-20T09:58:31',
    ( '' ),
    ( '' ),
    'SwSTEP 2.0',
    'SolidWorks 2019',
    '' );
FILE_SCHEMA (( 'CONFIG_CONTROL_DESIGN' ));
ENDSEC;

DATA;
#1 = PERSON_AND_ORGANIZATION ( #259, #51 ) ;
#2 = APPROVAL ( #305, 'NEURÈENÝ' ) ;
#3 = PRODUCT_DEFINITION ( 'NEZNÁMÝ', '', #65, #24 ) ;
#4 = EDGE_CURVE ( 'NONE', #104, #79, #217, .T. ) ;
#5 = EDGE_CURVE ( 'NONE', #265, #13, #41, .T. ) ;
#6 = CARTESIAN_POINT ( 'NONE',  ( 0.000000000000000000, 0.000000000000000000, 105.0000000000000142 ) ) ;
#7 = DIRECTION ( 'NONE',  ( 0.000000000000000000, 0.000000000000000000, 1.000000000000000000 ) ) ;
#8 = CARTESIAN_POINT ( 'NONE',  ( 0.000000000000000000, 0.000000000000000000, 105.0000000000000142 ) ) ;
#9 = ORIENTED_EDGE ( 'NONE', *, *, #17, .T. ) ;
#10 = DIRECTION ( 'NONE',  ( -0.000000000000000000, -0.000000000000000000, -1.000000000000000000 ) ) ;
#11 = AXIS2_PLACEMENT_3D ( 'NONE', #180, #268, #89 ) ;
#12 = CC_DESIGN_APPROVAL ( #168, ( #65 ) ) ;
#13 = VERTEX_POINT ( 'NONE', #153 ) ;
#14 = DIRECTION ( 'NONE',  ( -1.000000000000000000, 0.000000000000000000, 0.000000000000000000 ) ) ;
#15 = EDGE_LOOP ( 'NONE', ( #30, #85, #66, #39 ) ) ;
#16 = DIRECTION ( 'NONE',  ( 0.000000000000000000, 0.000000000000000000, 1.000000000000000000 ) ) ;
#17 = EDGE_CURVE ( 'NONE', #269, #265, #27, .T. ) ;
#18 = DIRECTION ( 'NONE',  ( 1.000000000000000000, 0.000000000000000000, 0.000000000000000000 ) ) ;
#19 = FACE_OUTER_BOUND ( 'NONE', #112, .T. ) ;
#20 = DIRECTION ( 'NONE',  ( -0.000000000000000000, -0.000000000000000000, -1.000000000000000000 ) ) ;
#21 = CALENDAR_DATE ( 2022, 20, 6 ) ;
#22 = CC_DESIGN_DATE_AND_TIME_ASSIGNMENT ( #118, #204, ( #3 ) ) ;
#23 = DIRECTION ( 'NONE',  ( 0.000000000000000000, 0.000000000000000000, 1.000000000000000000 ) ) ;
#24 = DESIGN_CONTEXT ( 'detailed design', #102, 'design' ) ;
#25 = APPROVAL_DATE_TIME ( #141, #168 ) ;
#26 = EDGE_CURVE ( 'NONE', #79, #155, #290, .T. ) ;
#27 = CIRCLE ( 'NONE', #101, 6.000000000000000888 ) ;
#28 = CC_DESIGN_SECURITY_CLASSIFICATION ( #100, ( #65 ) ) ;
#29 = ORIENTED_EDGE ( 'NONE', *, *, #4, .T. ) ;
#30 = ORIENTED_EDGE ( 'NONE', *, *, #178, .F. ) ;
#31 = AXIS2_PLACEMENT_3D ( 'NONE', #6, #267, #224 ) ;
#32 = ADVANCED_FACE ( 'NONE', ( #288 ), #77, .F. ) ;
#33 = ADVANCED_BREP_SHAPE_REPRESENTATION ( '6829', ( #210, #126 ), #230 ) ;
#34 = ORIENTED_EDGE ( 'NONE', *, *, #207, .T. ) ;
#35 = EDGE_LOOP ( 'NONE', ( #173, #29 ) ) ;
#36 = CARTESIAN_POINT ( 'NONE',  ( 0.000000000000000000, 0.000000000000000000, 5.199999999999996625 ) ) ;
#37 = ORIENTED_EDGE ( 'NONE', *, *, #4, .F. ) ;
#38 = PLANE ( 'NONE',  #125 ) ;
#39 = ORIENTED_EDGE ( 'NONE', *, *, #248, .F. ) ;
#40 = DIRECTION ( 'NONE',  ( 0.000000000000000000, -1.000000000000000000, 0.000000000000000000 ) ) ;
#41 = LINE ( 'NONE', #149, #131 ) ;
#42 = DIRECTION ( 'NONE',  ( 0.000000000000000000, 0.000000000000000000, -1.000000000000000000 ) ) ;
#43 = CARTESIAN_POINT ( 'NONE',  ( -6.000000000000000888, 0.000000000000000000, 5.000000000000000000 ) ) ;
#44 =( LENGTH_UNIT ( ) NAMED_UNIT ( * ) SI_UNIT ( .MILLI., .METRE. ) );
#45 = DIRECTION ( 'NONE',  ( -1.000000000000000000, 0.000000000000000000, 0.000000000000000000 ) ) ;
#46 = CIRCLE ( 'NONE', #272, 6.000000000000000888 ) ;
#47 = CARTESIAN_POINT ( 'NONE',  ( 0.000000000000000000, 0.000000000000000000, 5.199999999999996625 ) ) ;
#48 = CALENDAR_DATE ( 2022, 20, 6 ) ;
#49 = PERSON_AND_ORGANIZATION_ROLE ( 'classification_officer' ) ;
#50 = AXIS2_PLACEMENT_3D ( 'NONE', #36, #109, #182 ) ;
#51 = ORGANIZATION ( 'NEURÈENÝ', 'NEURÈENÝ', '' ) ;
#52 = APPROVAL_ROLE ( '' ) ;
#53 = AXIS2_PLACEMENT_3D ( 'NONE', #275, #69, #45 ) ;
#54 = APPROVAL_PERSON_ORGANIZATION ( #185, #168, #76 ) ;
#55 = ORIENTED_EDGE ( 'NONE', *, *, #139, .F. ) ;
#56 = CC_DESIGN_PERSON_AND_ORGANIZATION_ASSIGNMENT ( #258, #96, ( #303 ) ) ;
#57 = ORIENTED_EDGE ( 'NONE', *, *, #5, .F. ) ;
#58 = DIRECTION ( 'NONE',  ( 0.000000000000000000, 0.000000000000000000, 1.000000000000000000 ) ) ;
#59 = ADVANCED_FACE ( 'NONE', ( #137 ), #229, .T. ) ;
#60 = DIRECTION ( 'NONE',  ( -0.000000000000000000, -0.000000000000000000, -1.000000000000000000 ) ) ;
#61 = FACE_OUTER_BOUND ( 'NONE', #35, .T. ) ;
#62 = ORIENTED_EDGE ( 'NONE', *, *, #105, .F. ) ;
#63 = ADVANCED_FACE ( 'NONE', ( #71 ), #140, .T. ) ;
#64 = CARTESIAN_POINT ( 'NONE',  ( 0.000000000000000000, 0.000000000000000000, 5.000000000000000000 ) ) ;
#65 = PRODUCT_DEFINITION_FORMATION_WITH_SPECIFIED_SOURCE ( 'LIBOVOLNÝ', '', #303, .NOT_KNOWN. ) ;
#66 = ORIENTED_EDGE ( 'NONE', *, *, #188, .F. ) ;
#67 = EDGE_CURVE ( 'NONE', #151, #127, #113, .T. ) ;
#68 = CARTESIAN_POINT ( 'NONE',  ( 0.000000000000000000, 0.000000000000000000, 5.000000000000000000 ) ) ;
#69 = DIRECTION ( 'NONE',  ( -0.000000000000000000, -0.000000000000000000, -1.000000000000000000 ) ) ;
#70 = VECTOR ( 'NONE', #88, 1000.000000000000000 ) ;
#71 = FACE_OUTER_BOUND ( 'NONE', #130, .T. ) ;
#72 = DIRECTION ( 'NONE',  ( 1.000000000000000000, 0.000000000000000000, 0.000000000000000000 ) ) ;
#73 = TOROIDAL_SURFACE ( 'NONE', #50, 3.200000000000000622, 0.2000000000000000111 ) ;
#74 = APPROVAL_PERSON_ORGANIZATION ( #94, #245, #52 ) ;
#75 = MECHANICAL_CONTEXT ( 'NONE', #237, 'mechanical' ) ;
#76 = APPROVAL_ROLE ( '' ) ;
#77 = PLANE ( 'NONE',  #278 ) ;
#78 = ADVANCED_FACE ( 'NONE', ( #300 ), #253, .T. ) ;
#79 = VERTEX_POINT ( 'NONE', #183 ) ;
#80 = CIRCLE ( 'NONE', #292, 6.000000000000000888 ) ;
#81 = CARTESIAN_POINT ( 'NONE',  ( 0.000000000000000000, 0.000000000000000000, 5.000000000000000000 ) ) ;
#82 = ORIENTED_EDGE ( 'NONE', *, *, #206, .T. ) ;
#83 = CC_DESIGN_PERSON_AND_ORGANIZATION_ASSIGNMENT ( #165, #49, ( #100 ) ) ;
#84 = DIRECTION ( 'NONE',  ( 0.000000000000000000, 0.000000000000000000, 1.000000000000000000 ) ) ;
#85 = ORIENTED_EDGE ( 'NONE', *, *, #211, .T. ) ;
#86 = CARTESIAN_POINT ( 'NONE',  ( 0.000000000000000000, 0.000000000000000000, 5.000000000000000000 ) ) ;
#87 = DATE_AND_TIME ( #92, #285 ) ;
#88 = DIRECTION ( 'NONE',  ( -0.000000000000000000, -0.000000000000000000, -1.000000000000000000 ) ) ;
#89 = DIRECTION ( 'NONE',  ( -1.000000000000000000, 1.224646799147353207E-16, 0.000000000000000000 ) ) ;
#90 = CARTESIAN_POINT ( 'NONE',  ( 3.000000000000000444, 3.673940397442060361E-16, 105.0000000000000142 ) ) ;
#91 = DIRECTION ( 'NONE',  ( 1.000000000000000000, 0.000000000000000000, -0.000000000000000000 ) ) ;
#92 = CALENDAR_DATE ( 2022, 20, 6 ) ;
#93 = DIRECTION ( 'NONE',  ( -0.000000000000000000, -0.000000000000000000, -1.000000000000000000 ) ) ;
#94 = PERSON_AND_ORGANIZATION ( #259, #51 ) ;
#95 = AXIS2_PLACEMENT_3D ( 'NONE', #68, #84, #152 ) ;
#96 = PERSON_AND_ORGANIZATION_ROLE ( 'design_owner' ) ;
#97 = DATE_AND_TIME ( #239, #158 ) ;
#98 = PERSON_AND_ORGANIZATION_ROLE ( 'creator' ) ;
#99 = APPROVAL_ROLE ( '' ) ;
#100 = SECURITY_CLASSIFICATION ( '', '', #162 ) ;
#101 = AXIS2_PLACEMENT_3D ( 'NONE', #103, #192, #110 ) ;
#102 = APPLICATION_CONTEXT ( 'configuration controlled 3d designs of mechanical parts and assemblies' ) ;
#103 = CARTESIAN_POINT ( 'NONE',  ( 0.000000000000000000, 0.000000000000000000, 5.000000000000000000 ) ) ;
#104 = VERTEX_POINT ( 'NONE', #90 ) ;
#105 = EDGE_CURVE ( 'NONE', #104, #123, #280, .T. ) ;
#106 = FACE_OUTER_BOUND ( 'NONE', #240, .T. ) ;
#107 = ORIENTED_EDGE ( 'NONE', *, *, #206, .F. ) ;
#108 = CIRCLE ( 'NONE', #257, 0.1999999999999996503 ) ;
#109 = DIRECTION ( 'NONE',  ( 0.000000000000000000, 0.000000000000000000, 1.000000000000000000 ) ) ;
#110 = DIRECTION ( 'NONE',  ( 1.000000000000000000, 0.000000000000000000, 0.000000000000000000 ) ) ;
#111 = FACE_OUTER_BOUND ( 'NONE', #15, .T. ) ;
#112 = EDGE_LOOP ( 'NONE', ( #9, #82 ) ) ;
#113 = CIRCLE ( 'NONE', #260, 3.200000000000000622 ) ;
#114 = DIRECTION ( 'NONE',  ( 1.000000000000000000, 0.000000000000000000, 0.000000000000000000 ) ) ;
#115 = CARTESIAN_POINT ( 'NONE',  ( 0.000000000000000000, 0.000000000000000000, 105.0000000000000142 ) ) ;
#116 =( NAMED_UNIT ( * ) SI_UNIT ( $, .STERADIAN. ) SOLID_ANGLE_UNIT ( ) );
#117 = CARTESIAN_POINT ( 'NONE',  ( 0.000000000000000000, 0.000000000000000000, 5.000000000000000000 ) ) ;
#118 = DATE_AND_TIME ( #21, #179 ) ;
#119 = DIRECTION ( 'NONE',  ( 1.000000000000000000, 0.000000000000000000, -0.000000000000000000 ) ) ;
#120 = DATE_AND_TIME ( #233, #171 ) ;
#121 = SHAPE_DEFINITION_REPRESENTATION ( #282, #33 ) ;
#122 = DIRECTION ( 'NONE',  ( 0.000000000000000000, 0.000000000000000000, 1.000000000000000000 ) ) ;
#123 = VERTEX_POINT ( 'NONE', #302 ) ;
#124 = ORIENTED_EDGE ( 'NONE', *, *, #67, .F. ) ;
#125 = AXIS2_PLACEMENT_3D ( 'NONE', #301, #160, #91 ) ;
#126 = AXIS2_PLACEMENT_3D ( 'NONE', #281, #122, #72 ) ;
#127 = VERTEX_POINT ( 'NONE', #163 ) ;
#128 = CARTESIAN_POINT ( 'NONE',  ( -3.000000000000000444, 0.000000000000000000, 5.199999999999996625 ) ) ;
#129 = CC_DESIGN_PERSON_AND_ORGANIZATION_ASSIGNMENT ( #215, #261, ( #65 ) ) ;
#130 = EDGE_LOOP ( 'NONE', ( #62, #218, #201, #132 ) ) ;
#131 = VECTOR ( 'NONE', #60, 1000.000000000000000 ) ;
#132 = ORIENTED_EDGE ( 'NONE', *, *, #178, .T. ) ;
#133 = AXIS2_PLACEMENT_3D ( 'NONE', #225, #227, #114 ) ;
#134 = CARTESIAN_POINT ( 'NONE',  ( -3.000000000000000444, 0.000000000000000000, 105.0000000000000142 ) ) ;
#135 = FACE_OUTER_BOUND ( 'NONE', #198, .T. ) ;
#136 = DIRECTION ( 'NONE',  ( -0.000000000000000000, -0.000000000000000000, -1.000000000000000000 ) ) ;
#137 = FACE_OUTER_BOUND ( 'NONE', #175, .T. ) ;
#138 = COORDINATED_UNIVERSAL_TIME_OFFSET ( 1, 0, .AHEAD. ) ;
#139 = EDGE_CURVE ( 'NONE', #123, #155, #148, .T. ) ;
#140 = CYLINDRICAL_SURFACE ( 'NONE', #53, 3.000000000000000444 ) ;
#141 = DATE_AND_TIME ( #48, #273 ) ;
#142 = APPROVAL_STATUS ( 'not_yet_approved' ) ;
#143 = COORDINATED_UNIVERSAL_TIME_OFFSET ( 1, 0, .AHEAD. ) ;
#144 = AXIS2_PLACEMENT_3D ( 'NONE', #64, #58, #251 ) ;
#145 = APPROVAL_DATE_TIME ( #120, #245 ) ;
#146 = EDGE_CURVE ( 'NONE', #269, #166, #250, .T. ) ;
#147 = CC_DESIGN_APPROVAL ( #245, ( #3 ) ) ;
#148 = CIRCLE ( 'NONE', #190, 3.000000000000000444 ) ;
#149 = CARTESIAN_POINT ( 'NONE',  ( 6.000000000000000888, 7.347880794884120722E-16, 5.000000000000000000 ) ) ;
#150 = DIRECTION ( 'NONE',  ( 0.000000000000000000, 0.000000000000000000, 1.000000000000000000 ) ) ;
#151 = VERTEX_POINT ( 'NONE', #226 ) ;
#152 = DIRECTION ( 'NONE',  ( 1.000000000000000000, 0.000000000000000000, -0.000000000000000000 ) ) ;
#153 = CARTESIAN_POINT ( 'NONE',  ( 6.000000000000000888, 7.347880794884120722E-16, 0.000000000000000000 ) ) ;
#154 = DIRECTION ( 'NONE',  ( 1.000000000000000000, 0.000000000000000000, 0.000000000000000000 ) ) ;
#155 = VERTEX_POINT ( 'NONE', #128 ) ;
#156 = CIRCLE ( 'NONE', #307, 3.000000000000000444 ) ;
#157 = DIRECTION ( 'NONE',  ( 1.000000000000000000, 0.000000000000000000, 0.000000000000000000 ) ) ;
#158 = LOCAL_TIME ( 11, 58, 31.00000000000000000, #143 ) ;
#159 = DIRECTION ( 'NONE',  ( -0.000000000000000000, -0.000000000000000000, -1.000000000000000000 ) ) ;
#160 = DIRECTION ( 'NONE',  ( 0.000000000000000000, 0.000000000000000000, 1.000000000000000000 ) ) ;
#161 = DIRECTION ( 'NONE',  ( -1.000000000000000000, 0.000000000000000000, 0.000000000000000000 ) ) ;
#162 = SECURITY_CLASSIFICATION_LEVEL ( 'unclassified' ) ;
#163 = CARTESIAN_POINT ( 'NONE',  ( 3.200000000000000622, 0.000000000000000000, 4.999999999999998224 ) ) ;
#164 = CIRCLE ( 'NONE', #187, 3.000000000000000444 ) ;
#165 = PERSON_AND_ORGANIZATION ( #259, #51 ) ;
#166 = VERTEX_POINT ( 'NONE', #277 ) ;
#167 = VECTOR ( 'NONE', #20, 1000.000000000000000 ) ;
#168 = APPROVAL ( #283, 'NEURÈENÝ' ) ;
#169 = ORIENTED_EDGE ( 'NONE', *, *, #146, .T. ) ;
#170 = ORIENTED_EDGE ( 'NONE', *, *, #146, .F. ) ;
#171 = LOCAL_TIME ( 11, 58, 31.00000000000000000, #254 ) ;
#172 = DIRECTION ( 'NONE',  ( 1.000000000000000000, 0.000000000000000000, 0.000000000000000000 ) ) ;
#173 = ORIENTED_EDGE ( 'NONE', *, *, #289, .T. ) ;
#174 = CARTESIAN_POINT ( 'NONE',  ( 6.000000000000000888, 7.347880794884120722E-16, 5.000000000000000000 ) ) ;
#175 = EDGE_LOOP ( 'NONE', ( #37, #247, #246, #295 ) ) ;
#176 = DIRECTION ( 'NONE',  ( 1.000000000000000000, 0.000000000000000000, 0.000000000000000000 ) ) ;
#177 = ORIENTED_EDGE ( 'NONE', *, *, #17, .F. ) ;
#178 = EDGE_CURVE ( 'NONE', #155, #123, #164, .T. ) ;
#179 = LOCAL_TIME ( 11, 58, 31.00000000000000000, #138 ) ;
#180 = CARTESIAN_POINT ( 'NONE',  ( -3.200000000000000622, 3.918869757271530953E-16, 5.199999999999996625 ) ) ;
#181 = CARTESIAN_POINT ( 'NONE',  ( 3.000000000000000444, 3.673940397442060361E-16, 105.0000000000000142 ) ) ;
#182 = DIRECTION ( 'NONE',  ( 1.000000000000000000, 0.000000000000000000, 0.000000000000000000 ) ) ;
#183 = CARTESIAN_POINT ( 'NONE',  ( -3.000000000000000444, 0.000000000000000000, 105.0000000000000142 ) ) ;
#184 = AXIS2_PLACEMENT_3D ( 'NONE', #203, #159, #161 ) ;
#185 = PERSON_AND_ORGANIZATION ( #259, #51 ) ;
#186 = APPLICATION_PROTOCOL_DEFINITION ( 'international standard', 'config_control_design', 1994, #102 ) ;
#187 = AXIS2_PLACEMENT_3D ( 'NONE', #298, #294, #266 ) ;
#188 = EDGE_CURVE ( 'NONE', #127, #151, #284, .T. ) ;
#189 = CC_DESIGN_PERSON_AND_ORGANIZATION_ASSIGNMENT ( #1, #98, ( #3 ) ) ;
#190 = AXIS2_PLACEMENT_3D ( 'NONE', #47, #23, #231 ) ;
#191 = AXIS2_PLACEMENT_3D ( 'NONE', #86, #199, #176 ) ;
#192 = DIRECTION ( 'NONE',  ( 0.000000000000000000, 0.000000000000000000, 1.000000000000000000 ) ) ;
#193 = ORIENTED_EDGE ( 'NONE', *, *, #188, .T. ) ;
#194 = EDGE_CURVE ( 'NONE', #166, #13, #46, .T. ) ;
#195 = DIRECTION ( 'NONE',  ( 0.000000000000000000, 0.000000000000000000, 1.000000000000000000 ) ) ;
#196 = ORIENTED_EDGE ( 'NONE', *, *, #194, .F. ) ;
#197 = CARTESIAN_POINT ( 'NONE',  ( -6.000000000000000888, 0.000000000000000000, 5.000000000000000000 ) ) ;
#198 = EDGE_LOOP ( 'NONE', ( #57, #177, #169, #220 ) ) ;
#199 = DIRECTION ( 'NONE',  ( -0.000000000000000000, -0.000000000000000000, -1.000000000000000000 ) ) ;
#200 = AXIS2_PLACEMENT_3D ( 'NONE', #115, #205, #252 ) ;
#201 = ORIENTED_EDGE ( 'NONE', *, *, #26, .T. ) ;
#202 = CARTESIAN_POINT ( 'NONE',  ( 3.200000000000000622, 0.000000000000000000, 5.199999999999996625 ) ) ;
#203 = CARTESIAN_POINT ( 'NONE',  ( 0.000000000000000000, 0.000000000000000000, 5.000000000000000000 ) ) ;
#204 = DATE_TIME_ROLE ( 'creation_date' ) ;
#205 = DIRECTION ( 'NONE',  ( -0.000000000000000000, -0.000000000000000000, -1.000000000000000000 ) ) ;
#206 = EDGE_CURVE ( 'NONE', #265, #269, #212, .T. ) ;
#207 = EDGE_CURVE ( 'NONE', #13, #166, #80, .T. ) ;
#208 = CLOSED_SHELL ( 'NONE', ( #235, #59, #78, #236, #264, #32, #63, #276, #287 ) ) ;
#209 = APPLICATION_PROTOCOL_DEFINITION ( 'international standard', 'config_control_design', 1994, #237 ) ;
#210 = MANIFOLD_SOLID_BREP ( 'Zaoblit1', #208 ) ;
#211 = EDGE_CURVE ( 'NONE', #155, #151, #262, .T. ) ;
#212 = CIRCLE ( 'NONE', #144, 6.000000000000000888 ) ;
#213 = PRODUCT_RELATED_PRODUCT_CATEGORY ( 'detail', '', ( #303 ) ) ;
#214 = EDGE_LOOP ( 'NONE', ( #107, #286, #34, #170 ) ) ;
#215 = PERSON_AND_ORGANIZATION ( #259, #51 ) ;
#216 = EDGE_LOOP ( 'NONE', ( #193, #293 ) ) ;
#217 = CIRCLE ( 'NONE', #31, 3.000000000000000444 ) ;
#218 = ORIENTED_EDGE ( 'NONE', *, *, #289, .F. ) ;
#219 =( NAMED_UNIT ( * ) PLANE_ANGLE_UNIT ( ) SI_UNIT ( $, .RADIAN. ) );
#220 = ORIENTED_EDGE ( 'NONE', *, *, #194, .T. ) ;
#221 = AXIS2_PLACEMENT_3D ( 'NONE', #81, #10, #14 ) ;
#222 = CC_DESIGN_DATE_AND_TIME_ASSIGNMENT ( #87, #249, ( #100 ) ) ;
#223 = CC_DESIGN_APPROVAL ( #2, ( #100 ) ) ;
#224 = DIRECTION ( 'NONE',  ( 1.000000000000000000, 0.000000000000000000, 0.000000000000000000 ) ) ;
#225 = CARTESIAN_POINT ( 'NONE',  ( 0.000000000000000000, 0.000000000000000000, 5.199999999999996625 ) ) ;
#226 = CARTESIAN_POINT ( 'NONE',  ( -3.200000000000000622, 3.918869757271530953E-16, 4.999999999999998224 ) ) ;
#227 = DIRECTION ( 'NONE',  ( 0.000000000000000000, 0.000000000000000000, 1.000000000000000000 ) ) ;
#228 = CC_DESIGN_PERSON_AND_ORGANIZATION_ASSIGNMENT ( #232, #256, ( #65 ) ) ;
#229 = CYLINDRICAL_SURFACE ( 'NONE', #200, 3.000000000000000444 ) ;
#230 =( GEOMETRIC_REPRESENTATION_CONTEXT ( 3 ) GLOBAL_UNCERTAINTY_ASSIGNED_CONTEXT ( ( #306 ) ) GLOBAL_UNIT_ASSIGNED_CONTEXT ( ( #44, #219, #116 ) ) REPRESENTATION_CONTEXT ( 'NONE', 'WORKASPACE' ) );
#231 = DIRECTION ( 'NONE',  ( 1.000000000000000000, 0.000000000000000000, 0.000000000000000000 ) ) ;
#232 = PERSON_AND_ORGANIZATION ( #259, #51 ) ;
#233 = CALENDAR_DATE ( 2022, 20, 6 ) ;
#234 = APPROVAL_DATE_TIME ( #97, #2 ) ;
#235 = ADVANCED_FACE ( 'NONE', ( #111 ), #73, .F. ) ;
#236 = ADVANCED_FACE ( 'NONE', ( #135 ), #274, .T. ) ;
#237 = APPLICATION_CONTEXT ( 'configuration controlled 3d designs of mechanical parts and assemblies' ) ;
#238 = APPROVAL_PERSON_ORGANIZATION ( #279, #2, #99 ) ;
#239 = CALENDAR_DATE ( 2022, 20, 6 ) ;
#240 = EDGE_LOOP ( 'NONE', ( #271, #55, #243, #124 ) ) ;
#241 = EDGE_LOOP ( 'NONE', ( #196, #297 ) ) ;
#242 = FACE_BOUND ( 'NONE', #216, .T. ) ;
#243 = ORIENTED_EDGE ( 'NONE', *, *, #248, .T. ) ;
#244 = CARTESIAN_POINT ( 'NONE',  ( 0.000000000000000000, 0.000000000000000000, 0.000000000000000000 ) ) ;
#245 = APPROVAL ( #142, 'NEURÈENÝ' ) ;
#246 = ORIENTED_EDGE ( 'NONE', *, *, #139, .T. ) ;
#247 = ORIENTED_EDGE ( 'NONE', *, *, #105, .T. ) ;
#248 = EDGE_CURVE ( 'NONE', #123, #127, #108, .T. ) ;
#249 = DATE_TIME_ROLE ( 'classification_date' ) ;
#250 = LINE ( 'NONE', #43, #291 ) ;
#251 = DIRECTION ( 'NONE',  ( 1.000000000000000000, 0.000000000000000000, 0.000000000000000000 ) ) ;
#252 = DIRECTION ( 'NONE',  ( -1.000000000000000000, 0.000000000000000000, 0.000000000000000000 ) ) ;
#253 = CYLINDRICAL_SURFACE ( 'NONE', #184, 6.000000000000000888 ) ;
#254 = COORDINATED_UNIVERSAL_TIME_OFFSET ( 1, 0, .AHEAD. ) ;
#255 = COORDINATED_UNIVERSAL_TIME_OFFSET ( 1, 0, .AHEAD. ) ;
#256 = PERSON_AND_ORGANIZATION_ROLE ( 'creator' ) ;
#257 = AXIS2_PLACEMENT_3D ( 'NONE', #202, #40, #42 ) ;
#258 = PERSON_AND_ORGANIZATION ( #259, #51 ) ;
#259 = PERSON ( 'NEURÈENÝ', 'NEURÈENÝ', 'NEURÈENÝ', ('NEURÈENÝ'), ('NEURÈENÝ'), ('NEURÈENÝ') ) ;
#260 = AXIS2_PLACEMENT_3D ( 'NONE', #117, #93, #18 ) ;
#261 = PERSON_AND_ORGANIZATION_ROLE ( 'design_supplier' ) ;
#262 = CIRCLE ( 'NONE', #11, 0.2000000000000000944 ) ;
#263 = CARTESIAN_POINT ( 'NONE',  ( 0.000000000000000000, 0.000000000000000000, 0.000000000000000000 ) ) ;
#264 = ADVANCED_FACE ( 'NONE', ( #242, #19 ), #296, .T. ) ;
#265 = VERTEX_POINT ( 'NONE', #174 ) ;
#266 = DIRECTION ( 'NONE',  ( 1.000000000000000000, 0.000000000000000000, 0.000000000000000000 ) ) ;
#267 = DIRECTION ( 'NONE',  ( 0.000000000000000000, 0.000000000000000000, 1.000000000000000000 ) ) ;
#268 = DIRECTION ( 'NONE',  ( 1.224646799147353207E-16, 1.000000000000000000, -0.000000000000000000 ) ) ;
#269 = VERTEX_POINT ( 'NONE', #197 ) ;
#270 = CARTESIAN_POINT ( 'NONE',  ( 0.000000000000000000, 0.000000000000000000, 0.000000000000000000 ) ) ;
#271 = ORIENTED_EDGE ( 'NONE', *, *, #211, .F. ) ;
#272 = AXIS2_PLACEMENT_3D ( 'NONE', #270, #150, #154 ) ;
#273 = LOCAL_TIME ( 11, 58, 31.00000000000000000, #304 ) ;
#274 = CYLINDRICAL_SURFACE ( 'NONE', #221, 6.000000000000000888 ) ;
#275 = CARTESIAN_POINT ( 'NONE',  ( 0.000000000000000000, 0.000000000000000000, 105.0000000000000142 ) ) ;
#276 = ADVANCED_FACE ( 'NONE', ( #61 ), #38, .T. ) ;
#277 = CARTESIAN_POINT ( 'NONE',  ( -6.000000000000000888, 0.000000000000000000, 0.000000000000000000 ) ) ;
#278 = AXIS2_PLACEMENT_3D ( 'NONE', #263, #7, #119 ) ;
#279 = PERSON_AND_ORGANIZATION ( #259, #51 ) ;
#280 = LINE ( 'NONE', #181, #167 ) ;
#281 = CARTESIAN_POINT ( 'NONE',  ( 0.000000000000000000, 0.000000000000000000, 0.000000000000000000 ) ) ;
#282 = PRODUCT_DEFINITION_SHAPE ( 'NONE', 'NONE',  #3 ) ;
#283 = APPROVAL_STATUS ( 'not_yet_approved' ) ;
#284 = CIRCLE ( 'NONE', #191, 3.200000000000000622 ) ;
#285 = LOCAL_TIME ( 11, 58, 31.00000000000000000, #255 ) ;
#286 = ORIENTED_EDGE ( 'NONE', *, *, #5, .T. ) ;
#287 = ADVANCED_FACE ( 'NONE', ( #106 ), #299, .F. ) ;
#288 = FACE_OUTER_BOUND ( 'NONE', #241, .T. ) ;
#289 = EDGE_CURVE ( 'NONE', #79, #104, #156, .T. ) ;
#290 = LINE ( 'NONE', #134, #70 ) ;
#291 = VECTOR ( 'NONE', #136, 1000.000000000000000 ) ;
#292 = AXIS2_PLACEMENT_3D ( 'NONE', #244, #16, #157 ) ;
#293 = ORIENTED_EDGE ( 'NONE', *, *, #67, .T. ) ;
#294 = DIRECTION ( 'NONE',  ( 0.000000000000000000, 0.000000000000000000, 1.000000000000000000 ) ) ;
#295 = ORIENTED_EDGE ( 'NONE', *, *, #26, .F. ) ;
#296 = PLANE ( 'NONE',  #95 ) ;
#297 = ORIENTED_EDGE ( 'NONE', *, *, #207, .F. ) ;
#298 = CARTESIAN_POINT ( 'NONE',  ( 0.000000000000000000, 0.000000000000000000, 5.199999999999996625 ) ) ;
#299 = TOROIDAL_SURFACE ( 'NONE', #133, 3.200000000000000622, 0.2000000000000000111 ) ;
#300 = FACE_OUTER_BOUND ( 'NONE', #214, .T. ) ;
#301 = CARTESIAN_POINT ( 'NONE',  ( 0.000000000000000000, 0.000000000000000000, 105.0000000000000142 ) ) ;
#302 = CARTESIAN_POINT ( 'NONE',  ( 3.000000000000000444, 3.673940397442060361E-16, 5.199999999999996625 ) ) ;
#303 = PRODUCT ( '6829', '6829', '', ( #75 ) ) ;
#304 = COORDINATED_UNIVERSAL_TIME_OFFSET ( 1, 0, .AHEAD. ) ;
#305 = APPROVAL_STATUS ( 'not_yet_approved' ) ;
#306 = UNCERTAINTY_MEASURE_WITH_UNIT (LENGTH_MEASURE( 1.000000000000000082E-05 ), #44, 'distance_accuracy_value', 'NONE');
#307 = AXIS2_PLACEMENT_3D ( 'NONE', #8, #195, #172 ) ;
ENDSEC;
END-ISO-10303-21;
