ISO-10303-21;
HEADER;
FILE_DESCRIPTION (( 'STEP AP203' ),
    '1' );
FILE_NAME ('59c4.STEP',
    '2022-06-20T10:29:31',
    ( '' ),
    ( '' ),
    'SwSTEP 2.0',
    'SolidWorks 2019',
    '' );
FILE_SCHEMA (( 'CONFIG_CONTROL_DESIGN' ));
ENDSEC;

DATA;
#1 = CARTESIAN_POINT ( 'NONE',  ( 0.000000000000000000, 0.000000000000000000, 1.399999999999998579 ) ) ;
#2 = CIRCLE ( 'NONE', #115, 0.5000000000000000000 ) ;
#3 = PRODUCT_DEFINITION ( 'NEZNÁMÝ', '', #171, #34 ) ;
#4 = CIRCLE ( 'NONE', #259, 0.5000000000000000000 ) ;
#5 = DIRECTION ( 'NONE',  ( -0.000000000000000000, -0.000000000000000000, -1.000000000000000000 ) ) ;
#6 = APPROVAL ( #275, 'NEURÈENÝ' ) ;
#7 = CIRCLE ( 'NONE', #214, 0.5000000000000000000 ) ;
#8 = CARTESIAN_POINT ( 'NONE',  ( 0.000000000000000000, 0.000000000000000000, 1.199999999999999956 ) ) ;
#9 = APPROVAL_PERSON_ORGANIZATION ( #19, #175, #64 ) ;
#10 = EDGE_LOOP ( 'NONE', ( #33, #119 ) ) ;
#11 = FACE_OUTER_BOUND ( 'NONE', #203, .T. ) ;
#12 = DIRECTION ( 'NONE',  ( -1.000000000000000000, 0.000000000000000000, 0.000000000000000000 ) ) ;
#13 = DIRECTION ( 'NONE',  ( 0.000000000000000000, 0.000000000000000000, 1.000000000000000000 ) ) ;
#14 = DIRECTION ( 'NONE',  ( 1.000000000000000000, 0.000000000000000000, 0.000000000000000000 ) ) ;
#15 = ORIENTED_EDGE ( 'NONE', *, *, #263, .F. ) ;
#16 = CC_DESIGN_PERSON_AND_ORGANIZATION_ASSIGNMENT ( #157, #68, ( #171 ) ) ;
#17 = PERSON_AND_ORGANIZATION_ROLE ( 'classification_officer' ) ;
#18 = AXIS2_PLACEMENT_3D ( 'NONE', #133, #233, #262 ) ;
#19 = PERSON_AND_ORGANIZATION ( #87, #217 ) ;
#20 = FACE_OUTER_BOUND ( 'NONE', #30, .T. ) ;
#21 = CIRCLE ( 'NONE', #170, 1.250000000000000000 ) ;
#22 = PERSON_AND_ORGANIZATION ( #87, #217 ) ;
#23 = SECURITY_CLASSIFICATION_LEVEL ( 'unclassified' ) ;
#24 = PLANE ( 'NONE',  #18 ) ;
#25 = EDGE_CURVE ( 'NONE', #273, #73, #4, .T. ) ;
#26 = AXIS2_PLACEMENT_3D ( 'NONE', #219, #216, #78 ) ;
#27 = CALENDAR_DATE ( 2022, 20, 6 ) ;
#28 = DIRECTION ( 'NONE',  ( 1.000000000000000000, 0.000000000000000000, 0.000000000000000000 ) ) ;
#29 = APPROVAL_PERSON_ORGANIZATION ( #209, #6, #306 ) ;
#30 = EDGE_LOOP ( 'NONE', ( #91, #249 ) ) ;
#31 = ADVANCED_FACE ( 'NONE', ( #109 ), #135, .T. ) ;
#32 = CARTESIAN_POINT ( 'NONE',  ( 0.5000000000000000000, 6.123233995736766036E-17, 101.2000000000000171 ) ) ;
#33 = ORIENTED_EDGE ( 'NONE', *, *, #263, .T. ) ;
#34 = DESIGN_CONTEXT ( 'detailed design', #112, 'design' ) ;
#35 = DIRECTION ( 'NONE',  ( 0.000000000000000000, 0.000000000000000000, 1.000000000000000000 ) ) ;
#36 = ORIENTED_EDGE ( 'NONE', *, *, #281, .F. ) ;
#37 = CARTESIAN_POINT ( 'NONE',  ( 0.5000000000000000000, 6.123233995736766036E-17, 101.2000000000000171 ) ) ;
#38 = CARTESIAN_POINT ( 'NONE',  ( 0.6999999999999999556, 0.000000000000000000, 1.199999999999999289 ) ) ;
#39 = CIRCLE ( 'NONE', #305, 0.6999999999999999556 ) ;
#40 = DIRECTION ( 'NONE',  ( 0.000000000000000000, 0.000000000000000000, 1.000000000000000000 ) ) ;
#41 = VECTOR ( 'NONE', #246, 1000.000000000000000 ) ;
#42 = DATE_AND_TIME ( #127, #101 ) ;
#43 = CARTESIAN_POINT ( 'NONE',  ( 0.000000000000000000, 0.000000000000000000, 1.399999999999998579 ) ) ;
#44 = CALENDAR_DATE ( 2022, 20, 6 ) ;
#45 = VERTEX_POINT ( 'NONE', #229 ) ;
#46 = CIRCLE ( 'NONE', #283, 0.5000000000000000000 ) ;
#47 = PERSON_AND_ORGANIZATION ( #87, #217 ) ;
#48 = ADVANCED_FACE ( 'NONE', ( #252, #20 ), #181, .T. ) ;
#49 = FACE_OUTER_BOUND ( 'NONE', #145, .T. ) ;
#50 = COORDINATED_UNIVERSAL_TIME_OFFSET ( 1, 0, .AHEAD. ) ;
#51 = ORIENTED_EDGE ( 'NONE', *, *, #125, .F. ) ;
#52 = AXIS2_PLACEMENT_3D ( 'NONE', #297, #80, #173 ) ;
#53 = LOCAL_TIME ( 12, 29, 31.00000000000000000, #61 ) ;
#54 = CARTESIAN_POINT ( 'NONE',  ( 0.000000000000000000, 0.000000000000000000, 1.199999999999999956 ) ) ;
#55 = DIRECTION ( 'NONE',  ( -0.000000000000000000, -0.000000000000000000, -1.000000000000000000 ) ) ;
#56 = ORIENTED_EDGE ( 'NONE', *, *, #302, .F. ) ;
#57 = DIRECTION ( 'NONE',  ( 0.000000000000000000, 0.000000000000000000, 1.000000000000000000 ) ) ;
#58 = CC_DESIGN_PERSON_AND_ORGANIZATION_ASSIGNMENT ( #111, #17, ( #177 ) ) ;
#59 = CARTESIAN_POINT ( 'NONE',  ( 0.000000000000000000, 0.000000000000000000, 0.000000000000000000 ) ) ;
#60 = EDGE_CURVE ( 'NONE', #123, #99, #139, .T. ) ;
#61 = COORDINATED_UNIVERSAL_TIME_OFFSET ( 1, 0, .AHEAD. ) ;
#62 = CALENDAR_DATE ( 2022, 20, 6 ) ;
#63 = VERTEX_POINT ( 'NONE', #159 ) ;
#64 = APPROVAL_ROLE ( '' ) ;
#65 = ADVANCED_FACE ( 'NONE', ( #49 ), #24, .T. ) ;
#66 = PERSON_AND_ORGANIZATION_ROLE ( 'creator' ) ;
#67 = CARTESIAN_POINT ( 'NONE',  ( 0.000000000000000000, 0.000000000000000000, 1.199999999999999956 ) ) ;
#68 = PERSON_AND_ORGANIZATION_ROLE ( 'creator' ) ;
#69 = ORIENTED_EDGE ( 'NONE', *, *, #125, .T. ) ;
#70 = ORIENTED_EDGE ( 'NONE', *, *, #81, .F. ) ;
#71 = CIRCLE ( 'NONE', #264, 1.250000000000000000 ) ;
#72 = CYLINDRICAL_SURFACE ( 'NONE', #165, 1.250000000000000000 ) ;
#73 = VERTEX_POINT ( 'NONE', #193 ) ;
#74 = DIRECTION ( 'NONE',  ( 0.000000000000000000, -1.000000000000000000, 0.000000000000000000 ) ) ;
#75 = CC_DESIGN_APPROVAL ( #271, ( #171 ) ) ;
#76 = DIRECTION ( 'NONE',  ( 1.000000000000000000, 0.000000000000000000, 0.000000000000000000 ) ) ;
#77 = LINE ( 'NONE', #37, #149 ) ;
#78 = DIRECTION ( 'NONE',  ( -1.000000000000000000, 1.224646799147352714E-16, 0.000000000000000000 ) ) ;
#79 = CARTESIAN_POINT ( 'NONE',  ( 0.000000000000000000, 0.000000000000000000, 101.2000000000000171 ) ) ;
#80 = DIRECTION ( 'NONE',  ( -0.000000000000000000, -0.000000000000000000, -1.000000000000000000 ) ) ;
#81 = EDGE_CURVE ( 'NONE', #123, #205, #90, .T. ) ;
#82 = PERSON_AND_ORGANIZATION ( #87, #217 ) ;
#83 = CC_DESIGN_APPROVAL ( #6, ( #177 ) ) ;
#84 = DATE_AND_TIME ( #27, #158 ) ;
#85 = DIRECTION ( 'NONE',  ( -1.000000000000000000, 0.000000000000000000, 0.000000000000000000 ) ) ;
#86 = ADVANCED_FACE ( 'NONE', ( #164 ), #72, .T. ) ;
#87 = PERSON ( 'NEURÈENÝ', 'NEURÈENÝ', 'NEURÈENÝ', ('NEURÈENÝ'), ('NEURÈENÝ'), ('NEURÈENÝ') ) ;
#88 = PRODUCT_RELATED_PRODUCT_CATEGORY ( 'detail', '', ( #147 ) ) ;
#89 = ORIENTED_EDGE ( 'NONE', *, *, #160, .F. ) ;
#90 = LINE ( 'NONE', #189, #285 ) ;
#91 = ORIENTED_EDGE ( 'NONE', *, *, #143, .T. ) ;
#92 = EDGE_CURVE ( 'NONE', #63, #174, #39, .T. ) ;
#93 = ORIENTED_EDGE ( 'NONE', *, *, #192, .F. ) ;
#94 = AXIS2_PLACEMENT_3D ( 'NONE', #212, #74, #291 ) ;
#95 = CIRCLE ( 'NONE', #130, 0.6999999999999999556 ) ;
#96 = DIRECTION ( 'NONE',  ( -0.000000000000000000, -0.000000000000000000, -1.000000000000000000 ) ) ;
#97 = ORIENTED_EDGE ( 'NONE', *, *, #152, .F. ) ;
#98 = CARTESIAN_POINT ( 'NONE',  ( 0.000000000000000000, 0.000000000000000000, 0.000000000000000000 ) ) ;
#99 = VERTEX_POINT ( 'NONE', #243 ) ;
#100 = CARTESIAN_POINT ( 'NONE',  ( -1.250000000000000000, 0.000000000000000000, 1.199999999999999956 ) ) ;
#101 = LOCAL_TIME ( 12, 29, 31.00000000000000000, #155 ) ;
#102 = FACE_OUTER_BOUND ( 'NONE', #298, .T. ) ;
#103 = DIRECTION ( 'NONE',  ( -0.000000000000000000, -0.000000000000000000, -1.000000000000000000 ) ) ;
#104 =( NAMED_UNIT ( * ) SI_UNIT ( $, .STERADIAN. ) SOLID_ANGLE_UNIT ( ) );
#105 = ADVANCED_FACE ( 'NONE', ( #240 ), #300, .F. ) ;
#106 = AXIS2_PLACEMENT_3D ( 'NONE', #224, #40, #222 ) ;
#107 = DIRECTION ( 'NONE',  ( 0.000000000000000000, 0.000000000000000000, 1.000000000000000000 ) ) ;
#108 = APPROVAL_ROLE ( '' ) ;
#109 = FACE_OUTER_BOUND ( 'NONE', #245, .T. ) ;
#110 = DATE_TIME_ROLE ( 'classification_date' ) ;
#111 = PERSON_AND_ORGANIZATION ( #87, #217 ) ;
#112 = APPLICATION_CONTEXT ( 'configuration controlled 3d designs of mechanical parts and assemblies' ) ;
#113 = DIRECTION ( 'NONE',  ( 0.000000000000000000, 0.000000000000000000, 1.000000000000000000 ) ) ;
#114 = DIRECTION ( 'NONE',  ( 0.000000000000000000, 0.000000000000000000, 1.000000000000000000 ) ) ;
#115 = AXIS2_PLACEMENT_3D ( 'NONE', #79, #167, #124 ) ;
#116 = DIRECTION ( 'NONE',  ( -0.000000000000000000, -0.000000000000000000, -1.000000000000000000 ) ) ;
#117 = CC_DESIGN_PERSON_AND_ORGANIZATION_ASSIGNMENT ( #82, #66, ( #3 ) ) ;
#118 = FACE_OUTER_BOUND ( 'NONE', #190, .T. ) ;
#119 = ORIENTED_EDGE ( 'NONE', *, *, #92, .T. ) ;
#120 = AXIS2_PLACEMENT_3D ( 'NONE', #184, #255, #228 ) ;
#121 = CARTESIAN_POINT ( 'NONE',  ( 0.000000000000000000, 0.000000000000000000, 0.000000000000000000 ) ) ;
#122 = CYLINDRICAL_SURFACE ( 'NONE', #142, 1.250000000000000000 ) ;
#123 = VERTEX_POINT ( 'NONE', #211 ) ;
#124 = DIRECTION ( 'NONE',  ( 1.000000000000000000, 0.000000000000000000, 0.000000000000000000 ) ) ;
#125 = EDGE_CURVE ( 'NONE', #73, #174, #286, .T. ) ;
#126 = CARTESIAN_POINT ( 'NONE',  ( 0.000000000000000000, 0.000000000000000000, 1.199999999999999956 ) ) ;
#127 = CALENDAR_DATE ( 2022, 20, 6 ) ;
#128 = EDGE_CURVE ( 'NONE', #273, #63, #274, .T. ) ;
#129 = PERSON_AND_ORGANIZATION_ROLE ( 'design_owner' ) ;
#130 = AXIS2_PLACEMENT_3D ( 'NONE', #126, #141, #293 ) ;
#131 = DATE_AND_TIME ( #44, #210 ) ;
#132 = ORIENTED_EDGE ( 'NONE', *, *, #60, .F. ) ;
#133 = CARTESIAN_POINT ( 'NONE',  ( 0.000000000000000000, 0.000000000000000000, 101.2000000000000171 ) ) ;
#134 = COORDINATED_UNIVERSAL_TIME_OFFSET ( 1, 0, .AHEAD. ) ;
#135 = CYLINDRICAL_SURFACE ( 'NONE', #248, 0.5000000000000000000 ) ;
#136 = CC_DESIGN_PERSON_AND_ORGANIZATION_ASSIGNMENT ( #47, #129, ( #147 ) ) ;
#137 = ORIENTED_EDGE ( 'NONE', *, *, #281, .T. ) ;
#138 = DIRECTION ( 'NONE',  ( -1.000000000000000000, 0.000000000000000000, 0.000000000000000000 ) ) ;
#139 = CIRCLE ( 'NONE', #187, 1.250000000000000000 ) ;
#140 = CC_DESIGN_DATE_AND_TIME_ASSIGNMENT ( #299, #110, ( #177 ) ) ;
#141 = DIRECTION ( 'NONE',  ( -0.000000000000000000, -0.000000000000000000, -1.000000000000000000 ) ) ;
#142 = AXIS2_PLACEMENT_3D ( 'NONE', #8, #96, #12 ) ;
#143 = EDGE_CURVE ( 'NONE', #99, #123, #71, .T. ) ;
#144 = LINE ( 'NONE', #247, #176 ) ;
#145 = EDGE_LOOP ( 'NONE', ( #137, #215 ) ) ;
#146 = DIRECTION ( 'NONE',  ( 0.000000000000000000, 0.000000000000000000, 1.000000000000000000 ) ) ;
#147 = PRODUCT ( '59c4', '59c4', '', ( #179 ) ) ;
#148 = EDGE_LOOP ( 'NONE', ( #282, #295 ) ) ;
#149 = VECTOR ( 'NONE', #103, 1000.000000000000000 ) ;
#150 = CALENDAR_DATE ( 2022, 20, 6 ) ;
#151 = ORIENTED_EDGE ( 'NONE', *, *, #198, .F. ) ;
#152 = EDGE_CURVE ( 'NONE', #99, #180, #169, .T. ) ;
#153 = DATE_AND_TIME ( #150, #53 ) ;
#154 = ORIENTED_EDGE ( 'NONE', *, *, #152, .T. ) ;
#155 = COORDINATED_UNIVERSAL_TIME_OFFSET ( 1, 0, .AHEAD. ) ;
#156 = VERTEX_POINT ( 'NONE', #32 ) ;
#157 = PERSON_AND_ORGANIZATION ( #87, #217 ) ;
#158 = LOCAL_TIME ( 12, 29, 31.00000000000000000, #134 ) ;
#159 = CARTESIAN_POINT ( 'NONE',  ( -0.6999999999999999556, 8.572527594031473190E-17, 1.199999999999999289 ) ) ;
#160 = EDGE_CURVE ( 'NONE', #156, #45, #2, .T. ) ;
#161 = EDGE_LOOP ( 'NONE', ( #70, #225, #154, #303 ) ) ;
#162 = ADVANCED_BREP_SHAPE_REPRESENTATION ( '59c4', ( #234, #120 ), #261 ) ;
#163 = CC_DESIGN_APPROVAL ( #175, ( #3 ) ) ;
#164 = FACE_OUTER_BOUND ( 'NONE', #161, .T. ) ;
#165 = AXIS2_PLACEMENT_3D ( 'NONE', #54, #191, #138 ) ;
#166 = APPROVAL_PERSON_ORGANIZATION ( #22, #271, #108 ) ;
#167 = DIRECTION ( 'NONE',  ( 0.000000000000000000, 0.000000000000000000, 1.000000000000000000 ) ) ;
#168 = DIRECTION ( 'NONE',  ( 0.000000000000000000, 0.000000000000000000, 1.000000000000000000 ) ) ;
#169 = LINE ( 'NONE', #100, #41 ) ;
#170 = AXIS2_PLACEMENT_3D ( 'NONE', #121, #13, #197 ) ;
#171 = PRODUCT_DEFINITION_FORMATION_WITH_SPECIFIED_SOURCE ( 'LIBOVOLNÝ', '', #147, .NOT_KNOWN. ) ;
#172 = FACE_OUTER_BOUND ( 'NONE', #148, .T. ) ;
#173 = DIRECTION ( 'NONE',  ( -1.000000000000000000, 0.000000000000000000, 0.000000000000000000 ) ) ;
#174 = VERTEX_POINT ( 'NONE', #38 ) ;
#175 = APPROVAL ( #278, 'NEURÈENÝ' ) ;
#176 = VECTOR ( 'NONE', #55, 1000.000000000000000 ) ;
#177 = SECURITY_CLASSIFICATION ( '', '', #23 ) ;
#178 = APPROVAL_STATUS ( 'not_yet_approved' ) ;
#179 = MECHANICAL_CONTEXT ( 'NONE', #218, 'mechanical' ) ;
#180 = VERTEX_POINT ( 'NONE', #268 ) ;
#181 = PLANE ( 'NONE',  #204 ) ;
#182 = PRODUCT_DEFINITION_SHAPE ( 'NONE', 'NONE',  #3 ) ;
#183 = CC_DESIGN_DATE_AND_TIME_ASSIGNMENT ( #42, #230, ( #3 ) ) ;
#184 = CARTESIAN_POINT ( 'NONE',  ( 0.000000000000000000, 0.000000000000000000, 0.000000000000000000 ) ) ;
#185 = ORIENTED_EDGE ( 'NONE', *, *, #192, .T. ) ;
#186 = CARTESIAN_POINT ( 'NONE',  ( 0.000000000000000000, 0.000000000000000000, 1.199999999999999956 ) ) ;
#187 = AXIS2_PLACEMENT_3D ( 'NONE', #186, #107, #206 ) ;
#188 = APPROVAL_DATE_TIME ( #153, #6 ) ;
#189 = CARTESIAN_POINT ( 'NONE',  ( 1.250000000000000000, 1.530808498934191571E-16, 1.199999999999999956 ) ) ;
#190 = EDGE_LOOP ( 'NONE', ( #307, #56, #69, #267 ) ) ;
#191 = DIRECTION ( 'NONE',  ( -0.000000000000000000, -0.000000000000000000, -1.000000000000000000 ) ) ;
#192 = EDGE_CURVE ( 'NONE', #156, #73, #77, .T. ) ;
#193 = CARTESIAN_POINT ( 'NONE',  ( 0.5000000000000000000, 6.123233995736766036E-17, 1.399999999999998579 ) ) ;
#194 = CIRCLE ( 'NONE', #238, 1.250000000000000000 ) ;
#195 = UNCERTAINTY_MEASURE_WITH_UNIT (LENGTH_MEASURE( 1.000000000000000082E-05 ), #207, 'distance_accuracy_value', 'NONE');
#196 = DIRECTION ( 'NONE',  ( 1.000000000000000000, 0.000000000000000000, 0.000000000000000000 ) ) ;
#197 = DIRECTION ( 'NONE',  ( 1.000000000000000000, 0.000000000000000000, 0.000000000000000000 ) ) ;
#198 = EDGE_CURVE ( 'NONE', #45, #273, #144, .T. ) ;
#199 = DIRECTION ( 'NONE',  ( 0.000000000000000000, 0.000000000000000000, 1.000000000000000000 ) ) ;
#200 = CYLINDRICAL_SURFACE ( 'NONE', #52, 0.5000000000000000000 ) ;
#201 = ADVANCED_FACE ( 'NONE', ( #118 ), #294, .F. ) ;
#202 = CARTESIAN_POINT ( 'NONE',  ( 0.000000000000000000, 0.000000000000000000, 1.199999999999999956 ) ) ;
#203 = EDGE_LOOP ( 'NONE', ( #132, #231, #220, #97 ) ) ;
#204 = AXIS2_PLACEMENT_3D ( 'NONE', #67, #113, #237 ) ;
#205 = VERTEX_POINT ( 'NONE', #244 ) ;
#206 = DIRECTION ( 'NONE',  ( 1.000000000000000000, 0.000000000000000000, 0.000000000000000000 ) ) ;
#207 =( LENGTH_UNIT ( ) NAMED_UNIT ( * ) SI_UNIT ( .MILLI., .METRE. ) );
#208 = AXIS2_PLACEMENT_3D ( 'NONE', #1, #114, #284 ) ;
#209 = PERSON_AND_ORGANIZATION ( #87, #217 ) ;
#210 = LOCAL_TIME ( 12, 29, 31.00000000000000000, #50 ) ;
#211 = CARTESIAN_POINT ( 'NONE',  ( 1.250000000000000000, 1.530808498934191571E-16, 1.199999999999999956 ) ) ;
#212 = CARTESIAN_POINT ( 'NONE',  ( 0.6999999999999999556, 0.000000000000000000, 1.399999999999998579 ) ) ;
#213 = ORIENTED_EDGE ( 'NONE', *, *, #25, .T. ) ;
#214 = AXIS2_PLACEMENT_3D ( 'NONE', #272, #146, #14 ) ;
#215 = ORIENTED_EDGE ( 'NONE', *, *, #160, .T. ) ;
#216 = DIRECTION ( 'NONE',  ( 1.224646799147353207E-16, 1.000000000000000000, -0.000000000000000000 ) ) ;
#217 = ORGANIZATION ( 'NEURÈENÝ', 'NEURÈENÝ', '' ) ;
#218 = APPLICATION_CONTEXT ( 'configuration controlled 3d designs of mechanical parts and assemblies' ) ;
#219 = CARTESIAN_POINT ( 'NONE',  ( -0.6999999999999999556, 8.572527594031471957E-17, 1.399999999999998579 ) ) ;
#220 = ORIENTED_EDGE ( 'NONE', *, *, #254, .T. ) ;
#221 = CC_DESIGN_PERSON_AND_ORGANIZATION_ASSIGNMENT ( #226, #257, ( #171 ) ) ;
#222 = DIRECTION ( 'NONE',  ( 1.000000000000000000, 0.000000000000000000, 0.000000000000000000 ) ) ;
#223 = DIRECTION ( 'NONE',  ( 1.000000000000000000, 0.000000000000000000, 0.000000000000000000 ) ) ;
#224 = CARTESIAN_POINT ( 'NONE',  ( 0.000000000000000000, 0.000000000000000000, 1.399999999999998579 ) ) ;
#225 = ORIENTED_EDGE ( 'NONE', *, *, #143, .F. ) ;
#226 = PERSON_AND_ORGANIZATION ( #87, #217 ) ;
#227 = ORIENTED_EDGE ( 'NONE', *, *, #302, .T. ) ;
#228 = DIRECTION ( 'NONE',  ( 1.000000000000000000, 0.000000000000000000, 0.000000000000000000 ) ) ;
#229 = CARTESIAN_POINT ( 'NONE',  ( -0.5000000000000000000, 0.000000000000000000, 101.2000000000000171 ) ) ;
#230 = DATE_TIME_ROLE ( 'creation_date' ) ;
#231 = ORIENTED_EDGE ( 'NONE', *, *, #81, .T. ) ;
#232 = APPLICATION_PROTOCOL_DEFINITION ( 'international standard', 'config_control_design', 1994, #112 ) ;
#233 = DIRECTION ( 'NONE',  ( 0.000000000000000000, 0.000000000000000000, 1.000000000000000000 ) ) ;
#234 = MANIFOLD_SOLID_BREP ( 'Zaoblit1', #235 ) ;
#235 = CLOSED_SHELL ( 'NONE', ( #105, #31, #241, #86, #48, #265, #296, #65, #201 ) ) ;
#236 = COORDINATED_UNIVERSAL_TIME_OFFSET ( 1, 0, .AHEAD. ) ;
#237 = DIRECTION ( 'NONE',  ( 1.000000000000000000, 0.000000000000000000, -0.000000000000000000 ) ) ;
#238 = AXIS2_PLACEMENT_3D ( 'NONE', #98, #199, #196 ) ;
#239 = SHAPE_DEFINITION_REPRESENTATION ( #182, #162 ) ;
#240 = FACE_OUTER_BOUND ( 'NONE', #292, .T. ) ;
#241 = ADVANCED_FACE ( 'NONE', ( #11 ), #122, .T. ) ;
#242 = ORIENTED_EDGE ( 'NONE', *, *, #25, .F. ) ;
#243 = CARTESIAN_POINT ( 'NONE',  ( -1.250000000000000000, 0.000000000000000000, 1.199999999999999956 ) ) ;
#244 = CARTESIAN_POINT ( 'NONE',  ( 1.250000000000000000, 1.530808498934191571E-16, 0.000000000000000000 ) ) ;
#245 = EDGE_LOOP ( 'NONE', ( #89, #185, #227, #151 ) ) ;
#246 = DIRECTION ( 'NONE',  ( -0.000000000000000000, -0.000000000000000000, -1.000000000000000000 ) ) ;
#247 = CARTESIAN_POINT ( 'NONE',  ( -0.5000000000000000000, 0.000000000000000000, 101.2000000000000171 ) ) ;
#248 = AXIS2_PLACEMENT_3D ( 'NONE', #304, #253, #85 ) ;
#249 = ORIENTED_EDGE ( 'NONE', *, *, #60, .T. ) ;
#250 = CARTESIAN_POINT ( 'NONE',  ( -0.5000000000000000000, 0.000000000000000000, 1.399999999999998579 ) ) ;
#251 =( NAMED_UNIT ( * ) PLANE_ANGLE_UNIT ( ) SI_UNIT ( $, .RADIAN. ) );
#252 = FACE_BOUND ( 'NONE', #10, .T. ) ;
#253 = DIRECTION ( 'NONE',  ( -0.000000000000000000, -0.000000000000000000, -1.000000000000000000 ) ) ;
#254 = EDGE_CURVE ( 'NONE', #205, #180, #194, .T. ) ;
#255 = DIRECTION ( 'NONE',  ( 0.000000000000000000, 0.000000000000000000, 1.000000000000000000 ) ) ;
#256 = DIRECTION ( 'NONE',  ( 1.000000000000000000, 0.000000000000000000, 0.000000000000000000 ) ) ;
#257 = PERSON_AND_ORGANIZATION_ROLE ( 'design_supplier' ) ;
#258 = DIRECTION ( 'NONE',  ( 0.000000000000000000, 0.000000000000000000, 1.000000000000000000 ) ) ;
#259 = AXIS2_PLACEMENT_3D ( 'NONE', #43, #258, #256 ) ;
#260 = CARTESIAN_POINT ( 'NONE',  ( 0.000000000000000000, 0.000000000000000000, 1.199999999999999956 ) ) ;
#261 =( GEOMETRIC_REPRESENTATION_CONTEXT ( 3 ) GLOBAL_UNCERTAINTY_ASSIGNED_CONTEXT ( ( #195 ) ) GLOBAL_UNIT_ASSIGNED_CONTEXT ( ( #207, #251, #104 ) ) REPRESENTATION_CONTEXT ( 'NONE', 'WORKASPACE' ) );
#262 = DIRECTION ( 'NONE',  ( 1.000000000000000000, 0.000000000000000000, -0.000000000000000000 ) ) ;
#263 = EDGE_CURVE ( 'NONE', #174, #63, #95, .T. ) ;
#264 = AXIS2_PLACEMENT_3D ( 'NONE', #202, #57, #76 ) ;
#265 = ADVANCED_FACE ( 'NONE', ( #172 ), #290, .F. ) ;
#266 = CARTESIAN_POINT ( 'NONE',  ( 0.000000000000000000, 0.000000000000000000, 101.2000000000000171 ) ) ;
#267 = ORIENTED_EDGE ( 'NONE', *, *, #92, .F. ) ;
#268 = CARTESIAN_POINT ( 'NONE',  ( -1.250000000000000000, 0.000000000000000000, 0.000000000000000000 ) ) ;
#269 = CC_DESIGN_SECURITY_CLASSIFICATION ( #177, ( #171 ) ) ;
#270 = DIRECTION ( 'NONE',  ( 1.000000000000000000, 0.000000000000000000, -0.000000000000000000 ) ) ;
#271 = APPROVAL ( #178, 'NEURÈENÝ' ) ;
#272 = CARTESIAN_POINT ( 'NONE',  ( 0.000000000000000000, 0.000000000000000000, 1.399999999999998579 ) ) ;
#273 = VERTEX_POINT ( 'NONE', #250 ) ;
#274 = CIRCLE ( 'NONE', #26, 0.1999999999999999833 ) ;
#275 = APPROVAL_STATUS ( 'not_yet_approved' ) ;
#276 = ORIENTED_EDGE ( 'NONE', *, *, #128, .T. ) ;
#277 = AXIS2_PLACEMENT_3D ( 'NONE', #59, #168, #270 ) ;
#278 = APPROVAL_STATUS ( 'not_yet_approved' ) ;
#279 = APPROVAL_DATE_TIME ( #84, #271 ) ;
#280 = APPROVAL_DATE_TIME ( #131, #175 ) ;
#281 = EDGE_CURVE ( 'NONE', #45, #156, #46, .T. ) ;
#282 = ORIENTED_EDGE ( 'NONE', *, *, #288, .F. ) ;
#283 = AXIS2_PLACEMENT_3D ( 'NONE', #266, #35, #223 ) ;
#284 = DIRECTION ( 'NONE',  ( 1.000000000000000000, 0.000000000000000000, 0.000000000000000000 ) ) ;
#285 = VECTOR ( 'NONE', #116, 1000.000000000000000 ) ;
#286 = CIRCLE ( 'NONE', #94, 0.2000000000000000944 ) ;
#287 = ORIENTED_EDGE ( 'NONE', *, *, #198, .T. ) ;
#288 = EDGE_CURVE ( 'NONE', #180, #205, #21, .T. ) ;
#289 = LOCAL_TIME ( 12, 29, 31.00000000000000000, #236 ) ;
#290 = PLANE ( 'NONE',  #277 ) ;
#291 = DIRECTION ( 'NONE',  ( 0.000000000000000000, 0.000000000000000000, -1.000000000000000000 ) ) ;
#292 = EDGE_LOOP ( 'NONE', ( #242, #276, #15, #51 ) ) ;
#293 = DIRECTION ( 'NONE',  ( 1.000000000000000000, 0.000000000000000000, 0.000000000000000000 ) ) ;
#294 = TOROIDAL_SURFACE ( 'NONE', #106, 0.6999999999999999556, 0.2000000000000000111 ) ;
#295 = ORIENTED_EDGE ( 'NONE', *, *, #254, .F. ) ;
#296 = ADVANCED_FACE ( 'NONE', ( #102 ), #200, .T. ) ;
#297 = CARTESIAN_POINT ( 'NONE',  ( 0.000000000000000000, 0.000000000000000000, 101.2000000000000171 ) ) ;
#298 = EDGE_LOOP ( 'NONE', ( #93, #36, #287, #213 ) ) ;
#299 = DATE_AND_TIME ( #62, #289 ) ;
#300 = TOROIDAL_SURFACE ( 'NONE', #208, 0.6999999999999999556, 0.2000000000000000111 ) ;
#301 = APPLICATION_PROTOCOL_DEFINITION ( 'international standard', 'config_control_design', 1994, #218 ) ;
#302 = EDGE_CURVE ( 'NONE', #73, #273, #7, .T. ) ;
#303 = ORIENTED_EDGE ( 'NONE', *, *, #288, .T. ) ;
#304 = CARTESIAN_POINT ( 'NONE',  ( 0.000000000000000000, 0.000000000000000000, 101.2000000000000171 ) ) ;
#305 = AXIS2_PLACEMENT_3D ( 'NONE', #260, #5, #28 ) ;
#306 = APPROVAL_ROLE ( '' ) ;
#307 = ORIENTED_EDGE ( 'NONE', *, *, #128, .F. ) ;
ENDSEC;
END-ISO-10303-21;
