ISO-10303-21;
HEADER;
FILE_DESCRIPTION (( 'STEP AP203' ),
    '1' );
FILE_NAME ('1aad.STEP',
    '2022-06-20T09:43:56',
    ( '' ),
    ( '' ),
    'SwSTEP 2.0',
    'SolidWorks 2019',
    '' );
FILE_SCHEMA (( 'CONFIG_CONTROL_DESIGN' ));
ENDSEC;

DATA;
#1 = ADVANCED_FACE ( 'NONE', ( #53 ), #117, .T. ) ;
#2 =( GEOMETRIC_REPRESENTATION_CONTEXT ( 3 ) GLOBAL_UNCERTAINTY_ASSIGNED_CONTEXT ( ( #121 ) ) GLOBAL_UNIT_ASSIGNED_CONTEXT ( ( #22, #68, #301 ) ) REPRESENTATION_CONTEXT ( 'NONE', 'WORKASPACE' ) );
#3 = ORIENTED_EDGE ( 'NONE', *, *, #190, .F. ) ;
#4 = DIRECTION ( 'NONE',  ( 1.000000000000000000, 0.000000000000000000, 0.000000000000000000 ) ) ;
#5 = VERTEX_POINT ( 'NONE', #144 ) ;
#6 = ORIENTED_EDGE ( 'NONE', *, *, #294, .T. ) ;
#7 = CC_DESIGN_DATE_AND_TIME_ASSIGNMENT ( #211, #307, ( #62 ) ) ;
#8 = CARTESIAN_POINT ( 'NONE',  ( -7.000000000000000000, 0.000000000000000000, 5.000000000000000000 ) ) ;
#9 = DIRECTION ( 'NONE',  ( 0.000000000000000000, 0.000000000000000000, 1.000000000000000000 ) ) ;
#10 = CC_DESIGN_PERSON_AND_ORGANIZATION_ASSIGNMENT ( #287, #79, ( #176 ) ) ;
#11 = DIRECTION ( 'NONE',  ( 1.000000000000000000, 0.000000000000000000, 0.000000000000000000 ) ) ;
#12 = ORIENTED_EDGE ( 'NONE', *, *, #251, .F. ) ;
#13 = AXIS2_PLACEMENT_3D ( 'NONE', #203, #151, #11 ) ;
#14 = AXIS2_PLACEMENT_3D ( 'NONE', #70, #25, #206 ) ;
#15 = FACE_OUTER_BOUND ( 'NONE', #132, .T. ) ;
#16 = ORIENTED_EDGE ( 'NONE', *, *, #196, .F. ) ;
#17 = CARTESIAN_POINT ( 'NONE',  ( 0.000000000000000000, 0.000000000000000000, 5.000000000000000000 ) ) ;
#18 = COORDINATED_UNIVERSAL_TIME_OFFSET ( 1, 0, .AHEAD. ) ;
#19 = CALENDAR_DATE ( 2022, 20, 6 ) ;
#20 = AXIS2_PLACEMENT_3D ( 'NONE', #231, #189, #304 ) ;
#21 = SECURITY_CLASSIFICATION ( '', '', #119 ) ;
#22 =( LENGTH_UNIT ( ) NAMED_UNIT ( * ) SI_UNIT ( .MILLI., .METRE. ) );
#23 = EDGE_LOOP ( 'NONE', ( #227, #99, #283, #3 ) ) ;
#24 = EDGE_CURVE ( 'NONE', #97, #156, #81, .T. ) ;
#25 = DIRECTION ( 'NONE',  ( 0.000000000000000000, 0.000000000000000000, 1.000000000000000000 ) ) ;
#26 = EDGE_LOOP ( 'NONE', ( #204, #95, #73, #257 ) ) ;
#27 = ADVANCED_BREP_SHAPE_REPRESENTATION ( '1aad', ( #125, #14 ), #2 ) ;
#28 = APPROVAL_ROLE ( '' ) ;
#29 = APPROVAL_PERSON_ORGANIZATION ( #209, #233, #28 ) ;
#30 = DIRECTION ( 'NONE',  ( 0.000000000000000000, 0.000000000000000000, 1.000000000000000000 ) ) ;
#31 = APPROVAL_ROLE ( '' ) ;
#32 = APPLICATION_CONTEXT ( 'configuration controlled 3d designs of mechanical parts and assemblies' ) ;
#33 = CARTESIAN_POINT ( 'NONE',  ( -4.500000000000000888, 0.000000000000000000, 105.0000000000000142 ) ) ;
#34 = AXIS2_PLACEMENT_3D ( 'NONE', #142, #30, #4 ) ;
#35 = CARTESIAN_POINT ( 'NONE',  ( 0.000000000000000000, 0.000000000000000000, 5.000000000000000000 ) ) ;
#36 = PLANE ( 'NONE',  #137 ) ;
#37 = LINE ( 'NONE', #123, #222 ) ;
#38 = ADVANCED_FACE ( 'NONE', ( #139 ), #76, .F. ) ;
#39 = AXIS2_PLACEMENT_3D ( 'NONE', #198, #158, #133 ) ;
#40 = CARTESIAN_POINT ( 'NONE',  ( 0.000000000000000000, 0.000000000000000000, 5.199999999999996625 ) ) ;
#41 = ADVANCED_FACE ( 'NONE', ( #241 ), #160, .T. ) ;
#42 = CIRCLE ( 'NONE', #13, 7.000000000000000000 ) ;
#43 = DIRECTION ( 'NONE',  ( 0.000000000000000000, 0.000000000000000000, 1.000000000000000000 ) ) ;
#44 = CARTESIAN_POINT ( 'NONE',  ( 0.000000000000000000, 0.000000000000000000, 105.0000000000000142 ) ) ;
#45 = EDGE_LOOP ( 'NONE', ( #236, #55 ) ) ;
#46 = ADVANCED_FACE ( 'NONE', ( #75 ), #166, .T. ) ;
#47 = DIRECTION ( 'NONE',  ( -1.000000000000000000, 0.000000000000000000, 0.000000000000000000 ) ) ;
#48 = CALENDAR_DATE ( 2022, 20, 6 ) ;
#49 = DIRECTION ( 'NONE',  ( 1.000000000000000000, 0.000000000000000000, 0.000000000000000000 ) ) ;
#50 = CARTESIAN_POINT ( 'NONE',  ( 0.000000000000000000, 0.000000000000000000, 5.000000000000000000 ) ) ;
#51 = COORDINATED_UNIVERSAL_TIME_OFFSET ( 1, 0, .AHEAD. ) ;
#52 = PRODUCT_DEFINITION_SHAPE ( 'NONE', 'NONE',  #62 ) ;
#53 = FACE_OUTER_BOUND ( 'NONE', #26, .T. ) ;
#54 = EDGE_CURVE ( 'NONE', #247, #250, #130, .T. ) ;
#55 = ORIENTED_EDGE ( 'NONE', *, *, #24, .T. ) ;
#56 = DIRECTION ( 'NONE',  ( 1.000000000000000000, 0.000000000000000000, 0.000000000000000000 ) ) ;
#57 = CARTESIAN_POINT ( 'NONE',  ( 4.700000000000000178, 0.000000000000000000, 4.999999999999998224 ) ) ;
#58 = EDGE_CURVE ( 'NONE', #5, #194, #159, .T. ) ;
#59 = CALENDAR_DATE ( 2022, 20, 6 ) ;
#60 = APPLICATION_CONTEXT ( 'configuration controlled 3d designs of mechanical parts and assemblies' ) ;
#61 = ORIENTED_EDGE ( 'NONE', *, *, #289, .F. ) ;
#62 = PRODUCT_DEFINITION ( 'NEZNÁMÝ', '', #176, #124 ) ;
#63 = LINE ( 'NONE', #82, #179 ) ;
#64 = EDGE_LOOP ( 'NONE', ( #265, #85, #94, #193 ) ) ;
#65 = DIRECTION ( 'NONE',  ( -1.000000000000000000, 0.000000000000000000, 0.000000000000000000 ) ) ;
#66 = ORIENTED_EDGE ( 'NONE', *, *, #289, .T. ) ;
#67 = AXIS2_PLACEMENT_3D ( 'NONE', #44, #249, #65 ) ;
#68 =( NAMED_UNIT ( * ) PLANE_ANGLE_UNIT ( ) SI_UNIT ( $, .RADIAN. ) );
#69 = TOROIDAL_SURFACE ( 'NONE', #242, 4.700000000000000178, 0.2000000000000000111 ) ;
#70 = CARTESIAN_POINT ( 'NONE',  ( 0.000000000000000000, 0.000000000000000000, 0.000000000000000000 ) ) ;
#71 = DIRECTION ( 'NONE',  ( -0.000000000000000000, -0.000000000000000000, -1.000000000000000000 ) ) ;
#72 = COORDINATED_UNIVERSAL_TIME_OFFSET ( 1, 0, .AHEAD. ) ;
#73 = ORIENTED_EDGE ( 'NONE', *, *, #190, .T. ) ;
#74 = APPROVAL_ROLE ( '' ) ;
#75 = FACE_OUTER_BOUND ( 'NONE', #23, .T. ) ;
#76 = PLANE ( 'NONE',  #290 ) ;
#77 = SHAPE_DEFINITION_REPRESENTATION ( #52, #27 ) ;
#78 = DIRECTION ( 'NONE',  ( -0.000000000000000000, -0.000000000000000000, -1.000000000000000000 ) ) ;
#79 = PERSON_AND_ORGANIZATION_ROLE ( 'creator' ) ;
#80 = CARTESIAN_POINT ( 'NONE',  ( 4.500000000000000888, 5.510910596163089556E-16, 5.199999999999996625 ) ) ;
#81 = CIRCLE ( 'NONE', #248, 7.000000000000000000 ) ;
#82 = CARTESIAN_POINT ( 'NONE',  ( 7.000000000000000000, 8.572527594031473190E-16, 5.000000000000000000 ) ) ;
#83 = COORDINATED_UNIVERSAL_TIME_OFFSET ( 1, 0, .AHEAD. ) ;
#84 = PLANE ( 'NONE',  #169 ) ;
#85 = ORIENTED_EDGE ( 'NONE', *, *, #294, .F. ) ;
#86 = DIRECTION ( 'NONE',  ( 1.000000000000000000, 0.000000000000000000, 0.000000000000000000 ) ) ;
#87 = DIRECTION ( 'NONE',  ( -1.000000000000000000, 1.224646799147353454E-16, 0.000000000000000000 ) ) ;
#88 = CC_DESIGN_DATE_AND_TIME_ASSIGNMENT ( #267, #167, ( #21 ) ) ;
#89 = DATE_AND_TIME ( #260, #286 ) ;
#90 = CIRCLE ( 'NONE', #285, 4.500000000000000888 ) ;
#91 = AXIS2_PLACEMENT_3D ( 'NONE', #272, #221, #155 ) ;
#92 = DIRECTION ( 'NONE',  ( -1.000000000000000000, 0.000000000000000000, 0.000000000000000000 ) ) ;
#93 = PERSON_AND_ORGANIZATION ( #164, #293 ) ;
#94 = ORIENTED_EDGE ( 'NONE', *, *, #104, .T. ) ;
#95 = ORIENTED_EDGE ( 'NONE', *, *, #126, .F. ) ;
#96 = PERSON_AND_ORGANIZATION ( #164, #293 ) ;
#97 = VERTEX_POINT ( 'NONE', #168 ) ;
#98 = AXIS2_PLACEMENT_3D ( 'NONE', #101, #268, #106 ) ;
#99 = ORIENTED_EDGE ( 'NONE', *, *, #186, .T. ) ;
#100 = PERSON_AND_ORGANIZATION ( #164, #293 ) ;
#101 = CARTESIAN_POINT ( 'NONE',  ( 0.000000000000000000, 0.000000000000000000, 5.199999999999996625 ) ) ;
#102 = PRODUCT ( '1aad', '1aad', '', ( #234 ) ) ;
#103 = DIRECTION ( 'NONE',  ( -0.000000000000000000, -0.000000000000000000, -1.000000000000000000 ) ) ;
#104 = EDGE_CURVE ( 'NONE', #178, #107, #239, .T. ) ;
#105 = CIRCLE ( 'NONE', #91, 7.000000000000000000 ) ;
#106 = DIRECTION ( 'NONE',  ( 1.000000000000000000, 0.000000000000000000, 0.000000000000000000 ) ) ;
#107 = VERTEX_POINT ( 'NONE', #284 ) ;
#108 = ADVANCED_FACE ( 'NONE', ( #15 ), #69, .F. ) ;
#109 = DIRECTION ( 'NONE',  ( 0.000000000000000000, -1.000000000000000000, 0.000000000000000000 ) ) ;
#110 = DIRECTION ( 'NONE',  ( 0.000000000000000000, 0.000000000000000000, -1.000000000000000000 ) ) ;
#111 = ORIENTED_EDGE ( 'NONE', *, *, #58, .F. ) ;
#112 = CC_DESIGN_PERSON_AND_ORGANIZATION_ASSIGNMENT ( #162, #254, ( #102 ) ) ;
#113 = CARTESIAN_POINT ( 'NONE',  ( 0.000000000000000000, 0.000000000000000000, 105.0000000000000142 ) ) ;
#114 = APPLICATION_PROTOCOL_DEFINITION ( 'international standard', 'config_control_design', 1994, #60 ) ;
#115 = DIRECTION ( 'NONE',  ( -1.000000000000000000, 0.000000000000000000, 0.000000000000000000 ) ) ;
#116 = CC_DESIGN_PERSON_AND_ORGANIZATION_ASSIGNMENT ( #258, #300, ( #62 ) ) ;
#117 = CYLINDRICAL_SURFACE ( 'NONE', #224, 7.000000000000000000 ) ;
#118 = CARTESIAN_POINT ( 'NONE',  ( 0.000000000000000000, 0.000000000000000000, 5.000000000000000000 ) ) ;
#119 = SECURITY_CLASSIFICATION_LEVEL ( 'unclassified' ) ;
#120 = CARTESIAN_POINT ( 'NONE',  ( 0.000000000000000000, 0.000000000000000000, 0.000000000000000000 ) ) ;
#121 = UNCERTAINTY_MEASURE_WITH_UNIT (LENGTH_MEASURE( 1.000000000000000082E-05 ), #22, 'distance_accuracy_value', 'NONE');
#122 = CARTESIAN_POINT ( 'NONE',  ( -7.000000000000000000, 0.000000000000000000, 5.000000000000000000 ) ) ;
#123 = CARTESIAN_POINT ( 'NONE',  ( 4.500000000000000888, 5.510910596163089556E-16, 105.0000000000000142 ) ) ;
#124 = DESIGN_CONTEXT ( 'detailed design', #60, 'design' ) ;
#125 = MANIFOLD_SOLID_BREP ( 'Zaoblit1', #147 ) ;
#126 = EDGE_CURVE ( 'NONE', #156, #97, #105, .T. ) ;
#127 = CIRCLE ( 'NONE', #302, 0.1999999999999996503 ) ;
#128 = CARTESIAN_POINT ( 'NONE',  ( -4.700000000000000178, 5.755839955992559655E-16, 5.199999999999996625 ) ) ;
#129 = CC_DESIGN_PERSON_AND_ORGANIZATION_ASSIGNMENT ( #96, #152, ( #21 ) ) ;
#130 = CIRCLE ( 'NONE', #295, 4.700000000000000178 ) ;
#131 = FACE_OUTER_BOUND ( 'NONE', #282, .T. ) ;
#132 = EDGE_LOOP ( 'NONE', ( #12, #261, #197, #16 ) ) ;
#133 = DIRECTION ( 'NONE',  ( 1.000000000000000000, 0.000000000000000000, 0.000000000000000000 ) ) ;
#134 = ORIENTED_EDGE ( 'NONE', *, *, #244, .T. ) ;
#135 = DATE_AND_TIME ( #19, #201 ) ;
#136 = APPROVAL_STATUS ( 'not_yet_approved' ) ;
#137 = AXIS2_PLACEMENT_3D ( 'NONE', #17, #252, #228 ) ;
#138 = ORIENTED_EDGE ( 'NONE', *, *, #274, .T. ) ;
#139 = FACE_OUTER_BOUND ( 'NONE', #273, .T. ) ;
#140 = EDGE_CURVE ( 'NONE', #194, #5, #42, .T. ) ;
#141 = DIRECTION ( 'NONE',  ( 0.000000000000000000, 0.000000000000000000, 1.000000000000000000 ) ) ;
#142 = CARTESIAN_POINT ( 'NONE',  ( 0.000000000000000000, 0.000000000000000000, 0.000000000000000000 ) ) ;
#143 = CIRCLE ( 'NONE', #185, 4.500000000000000888 ) ;
#144 = CARTESIAN_POINT ( 'NONE',  ( 7.000000000000000000, 8.572527594031473190E-16, 0.000000000000000000 ) ) ;
#145 = DATE_AND_TIME ( #270, #154 ) ;
#146 = CARTESIAN_POINT ( 'NONE',  ( 0.000000000000000000, 0.000000000000000000, 5.000000000000000000 ) ) ;
#147 = CLOSED_SHELL ( 'NONE', ( #108, #41, #46, #1, #220, #38, #208, #223, #172 ) ) ;
#148 = CC_DESIGN_PERSON_AND_ORGANIZATION_ASSIGNMENT ( #100, #214, ( #176 ) ) ;
#149 = FACE_OUTER_BOUND ( 'NONE', #171, .T. ) ;
#150 = APPROVAL_PERSON_ORGANIZATION ( #217, #281, #31 ) ;
#151 = DIRECTION ( 'NONE',  ( 0.000000000000000000, 0.000000000000000000, 1.000000000000000000 ) ) ;
#152 = PERSON_AND_ORGANIZATION_ROLE ( 'classification_officer' ) ;
#153 = CIRCLE ( 'NONE', #20, 4.500000000000000888 ) ;
#154 = LOCAL_TIME ( 11, 43, 56.00000000000000000, #51 ) ;
#155 = DIRECTION ( 'NONE',  ( 1.000000000000000000, 0.000000000000000000, 0.000000000000000000 ) ) ;
#156 = VERTEX_POINT ( 'NONE', #122 ) ;
#157 = CYLINDRICAL_SURFACE ( 'NONE', #67, 4.500000000000000888 ) ;
#158 = DIRECTION ( 'NONE',  ( -0.000000000000000000, -0.000000000000000000, -1.000000000000000000 ) ) ;
#159 = CIRCLE ( 'NONE', #34, 7.000000000000000000 ) ;
#160 = CYLINDRICAL_SURFACE ( 'NONE', #188, 4.500000000000000888 ) ;
#161 = LOCAL_TIME ( 11, 43, 56.00000000000000000, #187 ) ;
#162 = PERSON_AND_ORGANIZATION ( #164, #293 ) ;
#163 = ORIENTED_EDGE ( 'NONE', *, *, #296, .F. ) ;
#164 = PERSON ( 'NEURÈENÝ', 'NEURÈENÝ', 'NEURÈENÝ', ('NEURÈENÝ'), ('NEURÈENÝ'), ('NEURÈENÝ') ) ;
#165 = CARTESIAN_POINT ( 'NONE',  ( 0.000000000000000000, 0.000000000000000000, 105.0000000000000142 ) ) ;
#166 = CYLINDRICAL_SURFACE ( 'NONE', #305, 7.000000000000000000 ) ;
#167 = DATE_TIME_ROLE ( 'classification_date' ) ;
#168 = CARTESIAN_POINT ( 'NONE',  ( 7.000000000000000000, 8.572527594031473190E-16, 5.000000000000000000 ) ) ;
#169 = AXIS2_PLACEMENT_3D ( 'NONE', #275, #43, #288 ) ;
#170 = CC_DESIGN_SECURITY_CLASSIFICATION ( #21, ( #176 ) ) ;
#171 = EDGE_LOOP ( 'NONE', ( #6, #235 ) ) ;
#172 = ADVANCED_FACE ( 'NONE', ( #131 ), #292, .F. ) ;
#173 = CARTESIAN_POINT ( 'NONE',  ( -4.700000000000000178, 5.755839955992559655E-16, 4.999999999999998224 ) ) ;
#174 = FACE_OUTER_BOUND ( 'NONE', #64, .T. ) ;
#175 = APPROVAL_STATUS ( 'not_yet_approved' ) ;
#176 = PRODUCT_DEFINITION_FORMATION_WITH_SPECIFIED_SOURCE ( 'LIBOVOLNÝ', '', #102, .NOT_KNOWN. ) ;
#177 = CARTESIAN_POINT ( 'NONE',  ( 0.000000000000000000, 0.000000000000000000, 5.199999999999996625 ) ) ;
#178 = VERTEX_POINT ( 'NONE', #219 ) ;
#179 = VECTOR ( 'NONE', #103, 1000.000000000000000 ) ;
#180 = LINE ( 'NONE', #8, #205 ) ;
#181 = FACE_OUTER_BOUND ( 'NONE', #45, .T. ) ;
#182 = ORIENTED_EDGE ( 'NONE', *, *, #196, .T. ) ;
#183 = DIRECTION ( 'NONE',  ( 1.000000000000000000, 0.000000000000000000, 0.000000000000000000 ) ) ;
#184 = ORIENTED_EDGE ( 'NONE', *, *, #140, .F. ) ;
#185 = AXIS2_PLACEMENT_3D ( 'NONE', #225, #266, #56 ) ;
#186 = EDGE_CURVE ( 'NONE', #97, #5, #63, .T. ) ;
#187 = COORDINATED_UNIVERSAL_TIME_OFFSET ( 1, 0, .AHEAD. ) ;
#188 = AXIS2_PLACEMENT_3D ( 'NONE', #113, #78, #115 ) ;
#189 = DIRECTION ( 'NONE',  ( 0.000000000000000000, 0.000000000000000000, 1.000000000000000000 ) ) ;
#190 = EDGE_CURVE ( 'NONE', #156, #194, #180, .T. ) ;
#191 = DIRECTION ( 'NONE',  ( -0.000000000000000000, -0.000000000000000000, -1.000000000000000000 ) ) ;
#192 = APPROVAL_STATUS ( 'not_yet_approved' ) ;
#193 = ORIENTED_EDGE ( 'NONE', *, *, #251, .T. ) ;
#194 = VERTEX_POINT ( 'NONE', #291 ) ;
#195 = VERTEX_POINT ( 'NONE', #226 ) ;
#196 = EDGE_CURVE ( 'NONE', #229, #247, #127, .T. ) ;
#197 = ORIENTED_EDGE ( 'NONE', *, *, #54, .F. ) ;
#198 = CARTESIAN_POINT ( 'NONE',  ( 0.000000000000000000, 0.000000000000000000, 5.000000000000000000 ) ) ;
#199 = EDGE_CURVE ( 'NONE', #107, #250, #269, .T. ) ;
#200 = DIRECTION ( 'NONE',  ( -0.000000000000000000, -0.000000000000000000, -1.000000000000000000 ) ) ;
#201 = LOCAL_TIME ( 11, 43, 56.00000000000000000, #72 ) ;
#202 = VECTOR ( 'NONE', #215, 1000.000000000000000 ) ;
#203 = CARTESIAN_POINT ( 'NONE',  ( 0.000000000000000000, 0.000000000000000000, 0.000000000000000000 ) ) ;
#204 = ORIENTED_EDGE ( 'NONE', *, *, #186, .F. ) ;
#205 = VECTOR ( 'NONE', #200, 1000.000000000000000 ) ;
#206 = DIRECTION ( 'NONE',  ( 1.000000000000000000, 0.000000000000000000, 0.000000000000000000 ) ) ;
#207 = AXIS2_PLACEMENT_3D ( 'NONE', #165, #141, #183 ) ;
#208 = ADVANCED_FACE ( 'NONE', ( #174 ), #157, .T. ) ;
#209 = PERSON_AND_ORGANIZATION ( #164, #293 ) ;
#210 = ORIENTED_EDGE ( 'NONE', *, *, #54, .T. ) ;
#211 = DATE_AND_TIME ( #48, #161 ) ;
#212 = EDGE_LOOP ( 'NONE', ( #163, #138, #66, #276 ) ) ;
#213 = DIRECTION ( 'NONE',  ( 1.000000000000000000, 0.000000000000000000, 0.000000000000000000 ) ) ;
#214 = PERSON_AND_ORGANIZATION_ROLE ( 'design_supplier' ) ;
#215 = DIRECTION ( 'NONE',  ( -0.000000000000000000, -0.000000000000000000, -1.000000000000000000 ) ) ;
#216 = EDGE_LOOP ( 'NONE', ( #210, #134 ) ) ;
#217 = PERSON_AND_ORGANIZATION ( #164, #293 ) ;
#218 = APPROVAL_PERSON_ORGANIZATION ( #93, #238, #74 ) ;
#219 = CARTESIAN_POINT ( 'NONE',  ( -4.500000000000000888, 0.000000000000000000, 105.0000000000000142 ) ) ;
#220 = ADVANCED_FACE ( 'NONE', ( #299, #181 ), #36, .T. ) ;
#221 = DIRECTION ( 'NONE',  ( 0.000000000000000000, 0.000000000000000000, 1.000000000000000000 ) ) ;
#222 = VECTOR ( 'NONE', #246, 1000.000000000000000 ) ;
#223 = ADVANCED_FACE ( 'NONE', ( #149 ), #84, .T. ) ;
#224 = AXIS2_PLACEMENT_3D ( 'NONE', #35, #71, #47 ) ;
#225 = CARTESIAN_POINT ( 'NONE',  ( 0.000000000000000000, 0.000000000000000000, 5.199999999999996625 ) ) ;
#226 = CARTESIAN_POINT ( 'NONE',  ( 4.500000000000000888, 5.510910596163089556E-16, 105.0000000000000142 ) ) ;
#227 = ORIENTED_EDGE ( 'NONE', *, *, #24, .F. ) ;
#228 = DIRECTION ( 'NONE',  ( 1.000000000000000000, 0.000000000000000000, -0.000000000000000000 ) ) ;
#229 = VERTEX_POINT ( 'NONE', #80 ) ;
#230 = DIRECTION ( 'NONE',  ( 1.000000000000000000, 0.000000000000000000, 0.000000000000000000 ) ) ;
#231 = CARTESIAN_POINT ( 'NONE',  ( 0.000000000000000000, 0.000000000000000000, 105.0000000000000142 ) ) ;
#232 = DIRECTION ( 'NONE',  ( 1.000000000000000000, 0.000000000000000000, -0.000000000000000000 ) ) ;
#233 = APPROVAL ( #136, 'NEURÈENÝ' ) ;
#234 = MECHANICAL_CONTEXT ( 'NONE', #32, 'mechanical' ) ;
#235 = ORIENTED_EDGE ( 'NONE', *, *, #296, .T. ) ;
#236 = ORIENTED_EDGE ( 'NONE', *, *, #126, .T. ) ;
#237 = CC_DESIGN_APPROVAL ( #281, ( #21 ) ) ;
#238 = APPROVAL ( #192, 'NEURÈENÝ' ) ;
#239 = LINE ( 'NONE', #33, #202 ) ;
#240 = APPROVAL_DATE_TIME ( #145, #281 ) ;
#241 = FACE_OUTER_BOUND ( 'NONE', #212, .T. ) ;
#242 = AXIS2_PLACEMENT_3D ( 'NONE', #40, #9, #86 ) ;
#243 = DIRECTION ( 'NONE',  ( 1.224646799147353207E-16, 1.000000000000000000, -0.000000000000000000 ) ) ;
#244 = EDGE_CURVE ( 'NONE', #250, #247, #278, .T. ) ;
#245 = CARTESIAN_POINT ( 'NONE',  ( 4.700000000000000178, 0.000000000000000000, 5.199999999999996625 ) ) ;
#246 = DIRECTION ( 'NONE',  ( -0.000000000000000000, -0.000000000000000000, -1.000000000000000000 ) ) ;
#247 = VERTEX_POINT ( 'NONE', #57 ) ;
#248 = AXIS2_PLACEMENT_3D ( 'NONE', #146, #262, #49 ) ;
#249 = DIRECTION ( 'NONE',  ( -0.000000000000000000, -0.000000000000000000, -1.000000000000000000 ) ) ;
#250 = VERTEX_POINT ( 'NONE', #173 ) ;
#251 = EDGE_CURVE ( 'NONE', #107, #229, #143, .T. ) ;
#252 = DIRECTION ( 'NONE',  ( 0.000000000000000000, 0.000000000000000000, 1.000000000000000000 ) ) ;
#253 = AXIS2_PLACEMENT_3D ( 'NONE', #128, #243, #87 ) ;
#254 = PERSON_AND_ORGANIZATION_ROLE ( 'design_owner' ) ;
#255 = APPLICATION_PROTOCOL_DEFINITION ( 'international standard', 'config_control_design', 1994, #32 ) ;
#256 = PRODUCT_RELATED_PRODUCT_CATEGORY ( 'detail', '', ( #102 ) ) ;
#257 = ORIENTED_EDGE ( 'NONE', *, *, #140, .T. ) ;
#258 = PERSON_AND_ORGANIZATION ( #164, #293 ) ;
#259 = ORIENTED_EDGE ( 'NONE', *, *, #244, .F. ) ;
#260 = CALENDAR_DATE ( 2022, 20, 6 ) ;
#261 = ORIENTED_EDGE ( 'NONE', *, *, #199, .T. ) ;
#262 = DIRECTION ( 'NONE',  ( 0.000000000000000000, 0.000000000000000000, 1.000000000000000000 ) ) ;
#263 = CIRCLE ( 'NONE', #207, 4.500000000000000888 ) ;
#264 = CC_DESIGN_APPROVAL ( #238, ( #176 ) ) ;
#265 = ORIENTED_EDGE ( 'NONE', *, *, #274, .F. ) ;
#266 = DIRECTION ( 'NONE',  ( 0.000000000000000000, 0.000000000000000000, 1.000000000000000000 ) ) ;
#267 = DATE_AND_TIME ( #59, #297 ) ;
#268 = DIRECTION ( 'NONE',  ( 0.000000000000000000, 0.000000000000000000, 1.000000000000000000 ) ) ;
#269 = CIRCLE ( 'NONE', #253, 0.1999999999999996503 ) ;
#270 = CALENDAR_DATE ( 2022, 20, 6 ) ;
#271 = DIRECTION ( 'NONE',  ( 0.000000000000000000, 0.000000000000000000, 1.000000000000000000 ) ) ;
#272 = CARTESIAN_POINT ( 'NONE',  ( 0.000000000000000000, 0.000000000000000000, 5.000000000000000000 ) ) ;
#273 = EDGE_LOOP ( 'NONE', ( #184, #111 ) ) ;
#274 = EDGE_CURVE ( 'NONE', #195, #229, #37, .T. ) ;
#275 = CARTESIAN_POINT ( 'NONE',  ( 0.000000000000000000, 0.000000000000000000, 105.0000000000000142 ) ) ;
#276 = ORIENTED_EDGE ( 'NONE', *, *, #104, .F. ) ;
#277 = APPROVAL_DATE_TIME ( #89, #238 ) ;
#278 = CIRCLE ( 'NONE', #39, 4.700000000000000178 ) ;
#279 = DIRECTION ( 'NONE',  ( 0.000000000000000000, 0.000000000000000000, 1.000000000000000000 ) ) ;
#280 = APPROVAL_DATE_TIME ( #135, #233 ) ;
#281 = APPROVAL ( #175, 'NEURÈENÝ' ) ;
#282 = EDGE_LOOP ( 'NONE', ( #298, #61, #182, #259 ) ) ;
#283 = ORIENTED_EDGE ( 'NONE', *, *, #58, .T. ) ;
#284 = CARTESIAN_POINT ( 'NONE',  ( -4.500000000000000888, 0.000000000000000000, 5.199999999999996625 ) ) ;
#285 = AXIS2_PLACEMENT_3D ( 'NONE', #177, #271, #230 ) ;
#286 = LOCAL_TIME ( 11, 43, 56.00000000000000000, #18 ) ;
#287 = PERSON_AND_ORGANIZATION ( #164, #293 ) ;
#288 = DIRECTION ( 'NONE',  ( 1.000000000000000000, 0.000000000000000000, -0.000000000000000000 ) ) ;
#289 = EDGE_CURVE ( 'NONE', #229, #107, #90, .T. ) ;
#290 = AXIS2_PLACEMENT_3D ( 'NONE', #120, #279, #232 ) ;
#291 = CARTESIAN_POINT ( 'NONE',  ( -7.000000000000000000, 0.000000000000000000, 0.000000000000000000 ) ) ;
#292 = TOROIDAL_SURFACE ( 'NONE', #98, 4.700000000000000178, 0.2000000000000000111 ) ;
#293 = ORGANIZATION ( 'NEURÈENÝ', 'NEURÈENÝ', '' ) ;
#294 = EDGE_CURVE ( 'NONE', #178, #195, #263, .T. ) ;
#295 = AXIS2_PLACEMENT_3D ( 'NONE', #50, #191, #213 ) ;
#296 = EDGE_CURVE ( 'NONE', #195, #178, #153, .T. ) ;
#297 = LOCAL_TIME ( 11, 43, 56.00000000000000000, #83 ) ;
#298 = ORIENTED_EDGE ( 'NONE', *, *, #199, .F. ) ;
#299 = FACE_BOUND ( 'NONE', #216, .T. ) ;
#300 = PERSON_AND_ORGANIZATION_ROLE ( 'creator' ) ;
#301 =( NAMED_UNIT ( * ) SI_UNIT ( $, .STERADIAN. ) SOLID_ANGLE_UNIT ( ) );
#302 = AXIS2_PLACEMENT_3D ( 'NONE', #245, #109, #110 ) ;
#303 = CC_DESIGN_APPROVAL ( #233, ( #62 ) ) ;
#304 = DIRECTION ( 'NONE',  ( 1.000000000000000000, 0.000000000000000000, 0.000000000000000000 ) ) ;
#305 = AXIS2_PLACEMENT_3D ( 'NONE', #118, #306, #92 ) ;
#306 = DIRECTION ( 'NONE',  ( -0.000000000000000000, -0.000000000000000000, -1.000000000000000000 ) ) ;
#307 = DATE_TIME_ROLE ( 'creation_date' ) ;
ENDSEC;
END-ISO-10303-21;
