ISO-10303-21;
HEADER;
FILE_DESCRIPTION (( 'STEP AP203' ),
    '1' );
FILE_NAME ('273b.STEP',
    '2022-06-20T10:24:12',
    ( '' ),
    ( '' ),
    'SwSTEP 2.0',
    'SolidWorks 2019',
    '' );
FILE_SCHEMA (( 'CONFIG_CONTROL_DESIGN' ));
ENDSEC;

DATA;
#1 = DATE_AND_TIME ( #305, #50 ) ;
#2 = AXIS2_PLACEMENT_3D ( 'NONE', #187, #163, #282 ) ;
#3 = EDGE_CURVE ( 'NONE', #55, #127, #285, .T. ) ;
#4 = SECURITY_CLASSIFICATION ( '', '', #116 ) ;
#5 = DIRECTION ( 'NONE',  ( 1.224646799147353207E-16, 1.000000000000000000, -0.000000000000000000 ) ) ;
#6 = CARTESIAN_POINT ( 'NONE',  ( -1.500000000000000222, 0.000000000000000000, 1.500000000000000000 ) ) ;
#7 = ORIENTED_EDGE ( 'NONE', *, *, #3, .T. ) ;
#8 = CC_DESIGN_SECURITY_CLASSIFICATION ( #4, ( #98 ) ) ;
#9 = ORIENTED_EDGE ( 'NONE', *, *, #53, .T. ) ;
#10 = VERTEX_POINT ( 'NONE', #30 ) ;
#11 = CARTESIAN_POINT ( 'NONE',  ( 1.500000000000000222, 1.836970198721030181E-16, 0.000000000000000000 ) ) ;
#12 = CIRCLE ( 'NONE', #137, 1.500000000000000222 ) ;
#13 = DIRECTION ( 'NONE',  ( 1.000000000000000000, 0.000000000000000000, 0.000000000000000000 ) ) ;
#14 = DIRECTION ( 'NONE',  ( 1.000000000000000000, 0.000000000000000000, 0.000000000000000000 ) ) ;
#15 = CARTESIAN_POINT ( 'NONE',  ( 1.500000000000000222, 1.836970198721030181E-16, 1.500000000000000000 ) ) ;
#16 = DATE_AND_TIME ( #45, #253 ) ;
#17 = FACE_OUTER_BOUND ( 'NONE', #241, .T. ) ;
#18 = CARTESIAN_POINT ( 'NONE',  ( 0.000000000000000000, 0.000000000000000000, 0.000000000000000000 ) ) ;
#19 = CIRCLE ( 'NONE', #169, 0.1999999999999999833 ) ;
#20 = ORGANIZATION ( 'NEURÈENÝ', 'NEURÈENÝ', '' ) ;
#21 =( LENGTH_UNIT ( ) NAMED_UNIT ( * ) SI_UNIT ( .MILLI., .METRE. ) );
#22 = PERSON_AND_ORGANIZATION ( #262, #20 ) ;
#23 = ORIENTED_EDGE ( 'NONE', *, *, #264, .F. ) ;
#24 = VERTEX_POINT ( 'NONE', #125 ) ;
#25 = APPROVAL ( #185, 'NEURÈENÝ' ) ;
#26 = DIRECTION ( 'NONE',  ( -0.000000000000000000, -0.000000000000000000, -1.000000000000000000 ) ) ;
#27 = DIRECTION ( 'NONE',  ( 0.000000000000000000, 0.000000000000000000, 1.000000000000000000 ) ) ;
#28 = PRODUCT_DEFINITION ( 'NEZNÁMÝ', '', #98, #296 ) ;
#29 = DIRECTION ( 'NONE',  ( -0.000000000000000000, -0.000000000000000000, -1.000000000000000000 ) ) ;
#30 = CARTESIAN_POINT ( 'NONE',  ( 0.6500000000000000222, 7.960204194457795477E-17, 161.5000000000000000 ) ) ;
#31 = ADVANCED_FACE ( 'NONE', ( #124 ), #78, .T. ) ;
#32 = CIRCLE ( 'NONE', #86, 0.6500000000000000222 ) ;
#33 = ORIENTED_EDGE ( 'NONE', *, *, #254, .T. ) ;
#34 = CYLINDRICAL_SURFACE ( 'NONE', #216, 0.6500000000000000222 ) ;
#35 = DIRECTION ( 'NONE',  ( 1.000000000000000000, 0.000000000000000000, 0.000000000000000000 ) ) ;
#36 = CIRCLE ( 'NONE', #49, 1.500000000000000222 ) ;
#37 = CARTESIAN_POINT ( 'NONE',  ( 0.000000000000000000, 0.000000000000000000, 1.500000000000000000 ) ) ;
#38 = AXIS2_PLACEMENT_3D ( 'NONE', #44, #69, #160 ) ;
#39 = PERSON_AND_ORGANIZATION ( #262, #20 ) ;
#40 = LINE ( 'NONE', #15, #126 ) ;
#41 = DATE_TIME_ROLE ( 'classification_date' ) ;
#42 = EDGE_CURVE ( 'NONE', #150, #238, #36, .T. ) ;
#43 = CARTESIAN_POINT ( 'NONE',  ( 0.000000000000000000, 0.000000000000000000, 161.5000000000000000 ) ) ;
#44 = CARTESIAN_POINT ( 'NONE',  ( 0.000000000000000000, 0.000000000000000000, 1.700000000000007061 ) ) ;
#45 = CALENDAR_DATE ( 2022, 20, 6 ) ;
#46 = CIRCLE ( 'NONE', #290, 1.500000000000000222 ) ;
#47 = PERSON_AND_ORGANIZATION ( #262, #20 ) ;
#48 = ORIENTED_EDGE ( 'NONE', *, *, #192, .F. ) ;
#49 = AXIS2_PLACEMENT_3D ( 'NONE', #59, #145, #120 ) ;
#50 = LOCAL_TIME ( 12, 24, 12.00000000000000000, #92 ) ;
#51 =( NAMED_UNIT ( * ) SI_UNIT ( $, .STERADIAN. ) SOLID_ANGLE_UNIT ( ) );
#52 = CARTESIAN_POINT ( 'NONE',  ( 0.000000000000000000, 0.000000000000000000, 1.500000000000000000 ) ) ;
#53 = EDGE_CURVE ( 'NONE', #75, #55, #19, .T. ) ;
#54 = EDGE_LOOP ( 'NONE', ( #48, #9, #95, #196 ) ) ;
#55 = VERTEX_POINT ( 'NONE', #190 ) ;
#56 = EDGE_CURVE ( 'NONE', #10, #239, #102, .T. ) ;
#57 = ORIENTED_EDGE ( 'NONE', *, *, #249, .T. ) ;
#58 = LOCAL_TIME ( 12, 24, 12.00000000000000000, #111 ) ;
#59 = CARTESIAN_POINT ( 'NONE',  ( 0.000000000000000000, 0.000000000000000000, 0.000000000000000000 ) ) ;
#60 = DIRECTION ( 'NONE',  ( -0.000000000000000000, -0.000000000000000000, -1.000000000000000000 ) ) ;
#61 = CC_DESIGN_PERSON_AND_ORGANIZATION_ASSIGNMENT ( #64, #115, ( #98 ) ) ;
#62 = DIRECTION ( 'NONE',  ( -0.000000000000000000, -0.000000000000000000, -1.000000000000000000 ) ) ;
#63 = DIRECTION ( 'NONE',  ( 0.000000000000000000, 0.000000000000000000, 1.000000000000000000 ) ) ;
#64 = PERSON_AND_ORGANIZATION ( #262, #20 ) ;
#65 = LINE ( 'NONE', #269, #211 ) ;
#66 = PRODUCT ( '273b', '273b', '', ( #206 ) ) ;
#67 = FACE_OUTER_BOUND ( 'NONE', #295, .T. ) ;
#68 = DATE_AND_TIME ( #90, #173 ) ;
#69 = DIRECTION ( 'NONE',  ( 0.000000000000000000, 0.000000000000000000, 1.000000000000000000 ) ) ;
#70 = ORIENTED_EDGE ( 'NONE', *, *, #56, .T. ) ;
#71 = TOROIDAL_SURFACE ( 'NONE', #227, 0.8499999999999999778, 0.2000000000000000111 ) ;
#72 = EDGE_CURVE ( 'NONE', #186, #150, #219, .T. ) ;
#73 = ADVANCED_BREP_SHAPE_REPRESENTATION ( '273b', ( #255, #149 ), #113 ) ;
#74 = DIRECTION ( 'NONE',  ( 0.000000000000000000, 0.000000000000000000, 1.000000000000000000 ) ) ;
#75 = VERTEX_POINT ( 'NONE', #109 ) ;
#76 = AXIS2_PLACEMENT_3D ( 'NONE', #230, #299, #81 ) ;
#77 = ORIENTED_EDGE ( 'NONE', *, *, #53, .F. ) ;
#78 = CYLINDRICAL_SURFACE ( 'NONE', #232, 1.500000000000000222 ) ;
#79 = ORIENTED_EDGE ( 'NONE', *, *, #164, .F. ) ;
#80 = APPROVAL_PERSON_ORGANIZATION ( #252, #25, #302 ) ;
#81 = DIRECTION ( 'NONE',  ( 1.000000000000000000, 0.000000000000000000, -0.000000000000000000 ) ) ;
#82 = CC_DESIGN_DATE_AND_TIME_ASSIGNMENT ( #177, #210, ( #28 ) ) ;
#83 = CYLINDRICAL_SURFACE ( 'NONE', #298, 1.500000000000000222 ) ;
#84 = CALENDAR_DATE ( 2022, 20, 6 ) ;
#85 = CARTESIAN_POINT ( 'NONE',  ( 0.000000000000000000, 0.000000000000000000, 161.5000000000000000 ) ) ;
#86 = AXIS2_PLACEMENT_3D ( 'NONE', #117, #214, #220 ) ;
#87 = APPROVAL_DATE_TIME ( #16, #25 ) ;
#88 = EDGE_CURVE ( 'NONE', #238, #150, #12, .T. ) ;
#89 = DIRECTION ( 'NONE',  ( -1.000000000000000000, 0.000000000000000000, 0.000000000000000000 ) ) ;
#90 = CALENDAR_DATE ( 2022, 20, 6 ) ;
#91 = PERSON_AND_ORGANIZATION ( #262, #20 ) ;
#92 = COORDINATED_UNIVERSAL_TIME_OFFSET ( 1, 0, .AHEAD. ) ;
#93 = ORIENTED_EDGE ( 'NONE', *, *, #161, .F. ) ;
#94 = DIRECTION ( 'NONE',  ( 0.000000000000000000, 0.000000000000000000, 1.000000000000000000 ) ) ;
#95 = ORIENTED_EDGE ( 'NONE', *, *, #254, .F. ) ;
#96 = AXIS2_PLACEMENT_3D ( 'NONE', #287, #74, #122 ) ;
#97 = AXIS2_PLACEMENT_3D ( 'NONE', #43, #152, #106 ) ;
#98 = PRODUCT_DEFINITION_FORMATION_WITH_SPECIFIED_SOURCE ( 'LIBOVOLNÝ', '', #66, .NOT_KNOWN. ) ;
#99 = DIRECTION ( 'NONE',  ( -1.000000000000000000, 1.224646799147352714E-16, 0.000000000000000000 ) ) ;
#100 = DIRECTION ( 'NONE',  ( -0.000000000000000000, -0.000000000000000000, -1.000000000000000000 ) ) ;
#101 = ORIENTED_EDGE ( 'NONE', *, *, #158, .T. ) ;
#102 = CIRCLE ( 'NONE', #96, 0.6500000000000000222 ) ;
#103 = ORIENTED_EDGE ( 'NONE', *, *, #158, .F. ) ;
#104 = ORIENTED_EDGE ( 'NONE', *, *, #192, .T. ) ;
#105 = UNCERTAINTY_MEASURE_WITH_UNIT (LENGTH_MEASURE( 1.000000000000000082E-05 ), #21, 'distance_accuracy_value', 'NONE');
#106 = DIRECTION ( 'NONE',  ( -1.000000000000000000, 0.000000000000000000, 0.000000000000000000 ) ) ;
#107 = ADVANCED_FACE ( 'NONE', ( #228 ), #83, .T. ) ;
#108 = FACE_OUTER_BOUND ( 'NONE', #257, .T. ) ;
#109 = CARTESIAN_POINT ( 'NONE',  ( -0.6500000000000000222, 0.000000000000000000, 1.700000000000007061 ) ) ;
#110 = CARTESIAN_POINT ( 'NONE',  ( 0.000000000000000000, 0.000000000000000000, 1.500000000000000000 ) ) ;
#111 = COORDINATED_UNIVERSAL_TIME_OFFSET ( 1, 0, .AHEAD. ) ;
#112 = LINE ( 'NONE', #250, #259 ) ;
#113 =( GEOMETRIC_REPRESENTATION_CONTEXT ( 3 ) GLOBAL_UNCERTAINTY_ASSIGNED_CONTEXT ( ( #105 ) ) GLOBAL_UNIT_ASSIGNED_CONTEXT ( ( #21, #240, #51 ) ) REPRESENTATION_CONTEXT ( 'NONE', 'WORKASPACE' ) );
#114 = DATE_AND_TIME ( #84, #58 ) ;
#115 = PERSON_AND_ORGANIZATION_ROLE ( 'design_supplier' ) ;
#116 = SECURITY_CLASSIFICATION_LEVEL ( 'unclassified' ) ;
#117 = CARTESIAN_POINT ( 'NONE',  ( 0.000000000000000000, 0.000000000000000000, 1.700000000000007061 ) ) ;
#118 = ORIENTED_EDGE ( 'NONE', *, *, #164, .T. ) ;
#119 = AXIS2_PLACEMENT_3D ( 'NONE', #37, #63, #132 ) ;
#120 = DIRECTION ( 'NONE',  ( 1.000000000000000000, 0.000000000000000000, 0.000000000000000000 ) ) ;
#121 = CC_DESIGN_APPROVAL ( #25, ( #4 ) ) ;
#122 = DIRECTION ( 'NONE',  ( 1.000000000000000000, 0.000000000000000000, 0.000000000000000000 ) ) ;
#123 = DIRECTION ( 'NONE',  ( 1.000000000000000000, 0.000000000000000000, 0.000000000000000000 ) ) ;
#124 = FACE_OUTER_BOUND ( 'NONE', #148, .T. ) ;
#125 = CARTESIAN_POINT ( 'NONE',  ( 0.6500000000000000222, 7.960204194457795477E-17, 1.700000000000007061 ) ) ;
#126 = VECTOR ( 'NONE', #60, 1000.000000000000000 ) ;
#127 = VERTEX_POINT ( 'NONE', #301 ) ;
#128 = EDGE_CURVE ( 'NONE', #239, #75, #65, .T. ) ;
#129 = DIRECTION ( 'NONE',  ( -0.000000000000000000, -0.000000000000000000, -1.000000000000000000 ) ) ;
#130 = CARTESIAN_POINT ( 'NONE',  ( 0.000000000000000000, 0.000000000000000000, 1.500000000000000000 ) ) ;
#131 = AXIS2_PLACEMENT_3D ( 'NONE', #156, #135, #13 ) ;
#132 = DIRECTION ( 'NONE',  ( 1.000000000000000000, 0.000000000000000000, -0.000000000000000000 ) ) ;
#133 = DIRECTION ( 'NONE',  ( -0.000000000000000000, -0.000000000000000000, -1.000000000000000000 ) ) ;
#134 = APPROVAL_STATUS ( 'not_yet_approved' ) ;
#135 = DIRECTION ( 'NONE',  ( 0.000000000000000000, 0.000000000000000000, 1.000000000000000000 ) ) ;
#136 = PERSON_AND_ORGANIZATION_ROLE ( 'creator' ) ;
#137 = AXIS2_PLACEMENT_3D ( 'NONE', #276, #181, #14 ) ;
#138 = TOROIDAL_SURFACE ( 'NONE', #38, 0.8499999999999999778, 0.2000000000000000111 ) ;
#139 = ADVANCED_FACE ( 'NONE', ( #297 ), #202, .T. ) ;
#140 = APPROVAL_DATE_TIME ( #1, #284 ) ;
#141 = CC_DESIGN_PERSON_AND_ORGANIZATION_ASSIGNMENT ( #47, #136, ( #28 ) ) ;
#142 = ADVANCED_FACE ( 'NONE', ( #108 ), #176, .F. ) ;
#143 = CIRCLE ( 'NONE', #178, 0.6500000000000000222 ) ;
#144 = ADVANCED_FACE ( 'NONE', ( #246, #17 ), #270, .T. ) ;
#145 = DIRECTION ( 'NONE',  ( 0.000000000000000000, 0.000000000000000000, 1.000000000000000000 ) ) ;
#146 = ORIENTED_EDGE ( 'NONE', *, *, #56, .F. ) ;
#147 = DIRECTION ( 'NONE',  ( 1.000000000000000000, 0.000000000000000000, 0.000000000000000000 ) ) ;
#148 = EDGE_LOOP ( 'NONE', ( #103, #79, #215, #293 ) ) ;
#149 = AXIS2_PLACEMENT_3D ( 'NONE', #18, #180, #274 ) ;
#150 = VERTEX_POINT ( 'NONE', #154 ) ;
#151 = DIRECTION ( 'NONE',  ( 0.000000000000000000, 0.000000000000000000, 1.000000000000000000 ) ) ;
#152 = DIRECTION ( 'NONE',  ( -0.000000000000000000, -0.000000000000000000, -1.000000000000000000 ) ) ;
#153 = AXIS2_PLACEMENT_3D ( 'NONE', #85, #244, #201 ) ;
#154 = CARTESIAN_POINT ( 'NONE',  ( -1.500000000000000222, 0.000000000000000000, 0.000000000000000000 ) ) ;
#155 = COORDINATED_UNIVERSAL_TIME_OFFSET ( 1, 0, .AHEAD. ) ;
#156 = CARTESIAN_POINT ( 'NONE',  ( 0.000000000000000000, 0.000000000000000000, 1.700000000000007061 ) ) ;
#157 = APPROVAL_ROLE ( '' ) ;
#158 = EDGE_CURVE ( 'NONE', #213, #238, #40, .T. ) ;
#159 = PERSON_AND_ORGANIZATION_ROLE ( 'creator' ) ;
#160 = DIRECTION ( 'NONE',  ( 1.000000000000000000, 0.000000000000000000, 0.000000000000000000 ) ) ;
#161 = EDGE_CURVE ( 'NONE', #10, #24, #112, .T. ) ;
#162 = ADVANCED_FACE ( 'NONE', ( #67 ), #205, .T. ) ;
#163 = DIRECTION ( 'NONE',  ( 0.000000000000000000, -1.000000000000000000, 0.000000000000000000 ) ) ;
#164 = EDGE_CURVE ( 'NONE', #186, #213, #204, .T. ) ;
#165 = AXIS2_PLACEMENT_3D ( 'NONE', #234, #209, #195 ) ;
#166 = ORIENTED_EDGE ( 'NONE', *, *, #88, .F. ) ;
#167 = CC_DESIGN_DATE_AND_TIME_ASSIGNMENT ( #68, #41, ( #4 ) ) ;
#168 = EDGE_LOOP ( 'NONE', ( #33, #7 ) ) ;
#169 = AXIS2_PLACEMENT_3D ( 'NONE', #194, #5, #99 ) ;
#170 = EDGE_LOOP ( 'NONE', ( #93, #242, #263, #104 ) ) ;
#171 = DIRECTION ( 'NONE',  ( -1.000000000000000000, 0.000000000000000000, 0.000000000000000000 ) ) ;
#172 = ORIENTED_EDGE ( 'NONE', *, *, #128, .F. ) ;
#173 = LOCAL_TIME ( 12, 24, 12.00000000000000000, #231 ) ;
#174 = CARTESIAN_POINT ( 'NONE',  ( 0.000000000000000000, 0.000000000000000000, 161.5000000000000000 ) ) ;
#175 = DIRECTION ( 'NONE',  ( -0.000000000000000000, -0.000000000000000000, -1.000000000000000000 ) ) ;
#176 = PLANE ( 'NONE',  #76 ) ;
#177 = DATE_AND_TIME ( #271, #233 ) ;
#178 = AXIS2_PLACEMENT_3D ( 'NONE', #268, #151, #35 ) ;
#179 = DIRECTION ( 'NONE',  ( 0.000000000000000000, 0.000000000000000000, 1.000000000000000000 ) ) ;
#180 = DIRECTION ( 'NONE',  ( 0.000000000000000000, 0.000000000000000000, 1.000000000000000000 ) ) ;
#181 = DIRECTION ( 'NONE',  ( 0.000000000000000000, 0.000000000000000000, 1.000000000000000000 ) ) ;
#182 = APPROVAL_STATUS ( 'not_yet_approved' ) ;
#183 = APPLICATION_CONTEXT ( 'configuration controlled 3d designs of mechanical parts and assemblies' ) ;
#184 = DIRECTION ( 'NONE',  ( 1.000000000000000000, 0.000000000000000000, 0.000000000000000000 ) ) ;
#185 = APPROVAL_STATUS ( 'not_yet_approved' ) ;
#186 = VERTEX_POINT ( 'NONE', #273 ) ;
#187 = CARTESIAN_POINT ( 'NONE',  ( 0.8499999999999999778, 0.000000000000000000, 1.700000000000007061 ) ) ;
#188 = ORIENTED_EDGE ( 'NONE', *, *, #278, .F. ) ;
#189 = APPROVAL_PERSON_ORGANIZATION ( #39, #193, #157 ) ;
#190 = CARTESIAN_POINT ( 'NONE',  ( -0.8499999999999999778, 1.040949779275250140E-16, 1.500000000000003553 ) ) ;
#191 = CC_DESIGN_PERSON_AND_ORGANIZATION_ASSIGNMENT ( #229, #277, ( #4 ) ) ;
#192 = EDGE_CURVE ( 'NONE', #75, #24, #223, .T. ) ;
#193 = APPROVAL ( #182, 'NEURÈENÝ' ) ;
#194 = CARTESIAN_POINT ( 'NONE',  ( -0.8499999999999999778, 1.040949779275250140E-16, 1.700000000000007061 ) ) ;
#195 = DIRECTION ( 'NONE',  ( 1.000000000000000000, 0.000000000000000000, 0.000000000000000000 ) ) ;
#196 = ORIENTED_EDGE ( 'NONE', *, *, #294, .F. ) ;
#197 = CLOSED_SHELL ( 'NONE', ( #292, #139, #107, #31, #144, #142, #218, #162, #306 ) ) ;
#198 = ORIENTED_EDGE ( 'NONE', *, *, #42, .F. ) ;
#199 = EDGE_LOOP ( 'NONE', ( #146, #261, #260, #172 ) ) ;
#200 = CARTESIAN_POINT ( 'NONE',  ( -0.6500000000000000222, 0.000000000000000000, 161.5000000000000000 ) ) ;
#201 = DIRECTION ( 'NONE',  ( 1.000000000000000000, 0.000000000000000000, -0.000000000000000000 ) ) ;
#202 = CYLINDRICAL_SURFACE ( 'NONE', #97, 0.6500000000000000222 ) ;
#203 = APPROVAL_ROLE ( '' ) ;
#204 = CIRCLE ( 'NONE', #286, 1.500000000000000222 ) ;
#205 = PLANE ( 'NONE',  #153 ) ;
#206 = MECHANICAL_CONTEXT ( 'NONE', #212, 'mechanical' ) ;
#207 = FACE_OUTER_BOUND ( 'NONE', #54, .T. ) ;
#208 = PERSON_AND_ORGANIZATION ( #262, #20 ) ;
#209 = DIRECTION ( 'NONE',  ( -0.000000000000000000, -0.000000000000000000, -1.000000000000000000 ) ) ;
#210 = DATE_TIME_ROLE ( 'creation_date' ) ;
#211 = VECTOR ( 'NONE', #62, 1000.000000000000000 ) ;
#212 = APPLICATION_CONTEXT ( 'configuration controlled 3d designs of mechanical parts and assemblies' ) ;
#213 = VERTEX_POINT ( 'NONE', #304 ) ;
#214 = DIRECTION ( 'NONE',  ( 0.000000000000000000, 0.000000000000000000, 1.000000000000000000 ) ) ;
#215 = ORIENTED_EDGE ( 'NONE', *, *, #72, .T. ) ;
#216 = AXIS2_PLACEMENT_3D ( 'NONE', #174, #129, #225 ) ;
#217 = CC_DESIGN_PERSON_AND_ORGANIZATION_ASSIGNMENT ( #91, #159, ( #98 ) ) ;
#218 = ADVANCED_FACE ( 'NONE', ( #243 ), #34, .T. ) ;
#219 = LINE ( 'NONE', #6, #266 ) ;
#220 = DIRECTION ( 'NONE',  ( 1.000000000000000000, 0.000000000000000000, 0.000000000000000000 ) ) ;
#221 = ORIENTED_EDGE ( 'NONE', *, *, #88, .T. ) ;
#222 = CARTESIAN_POINT ( 'NONE',  ( 0.000000000000000000, 0.000000000000000000, 1.500000000000000000 ) ) ;
#223 = CIRCLE ( 'NONE', #131, 0.6500000000000000222 ) ;
#224 = ORIENTED_EDGE ( 'NONE', *, *, #264, .T. ) ;
#225 = DIRECTION ( 'NONE',  ( -1.000000000000000000, 0.000000000000000000, 0.000000000000000000 ) ) ;
#226 = DIRECTION ( 'NONE',  ( 1.000000000000000000, 0.000000000000000000, 0.000000000000000000 ) ) ;
#227 = AXIS2_PLACEMENT_3D ( 'NONE', #289, #94, #184 ) ;
#228 = FACE_OUTER_BOUND ( 'NONE', #236, .T. ) ;
#229 = PERSON_AND_ORGANIZATION ( #262, #20 ) ;
#230 = CARTESIAN_POINT ( 'NONE',  ( 0.000000000000000000, 0.000000000000000000, 0.000000000000000000 ) ) ;
#231 = COORDINATED_UNIVERSAL_TIME_OFFSET ( 1, 0, .AHEAD. ) ;
#232 = AXIS2_PLACEMENT_3D ( 'NONE', #222, #26, #171 ) ;
#233 = LOCAL_TIME ( 12, 24, 12.00000000000000000, #251 ) ;
#234 = CARTESIAN_POINT ( 'NONE',  ( 0.000000000000000000, 0.000000000000000000, 1.500000000000000000 ) ) ;
#235 = PERSON_AND_ORGANIZATION_ROLE ( 'design_owner' ) ;
#236 = EDGE_LOOP ( 'NONE', ( #23, #101, #221, #291 ) ) ;
#237 = CC_DESIGN_APPROVAL ( #193, ( #28 ) ) ;
#238 = VERTEX_POINT ( 'NONE', #11 ) ;
#239 = VERTEX_POINT ( 'NONE', #200 ) ;
#240 =( NAMED_UNIT ( * ) PLANE_ANGLE_UNIT ( ) SI_UNIT ( $, .RADIAN. ) );
#241 = EDGE_LOOP ( 'NONE', ( #118, #224 ) ) ;
#242 = ORIENTED_EDGE ( 'NONE', *, *, #249, .F. ) ;
#243 = FACE_OUTER_BOUND ( 'NONE', #170, .T. ) ;
#244 = DIRECTION ( 'NONE',  ( 0.000000000000000000, 0.000000000000000000, 1.000000000000000000 ) ) ;
#245 = CC_DESIGN_PERSON_AND_ORGANIZATION_ASSIGNMENT ( #208, #235, ( #66 ) ) ;
#246 = FACE_BOUND ( 'NONE', #168, .T. ) ;
#247 = CIRCLE ( 'NONE', #2, 0.2000000000000000944 ) ;
#248 = APPROVAL_DATE_TIME ( #114, #193 ) ;
#249 = EDGE_CURVE ( 'NONE', #239, #10, #143, .T. ) ;
#250 = CARTESIAN_POINT ( 'NONE',  ( 0.6500000000000000222, 7.960204194457795477E-17, 161.5000000000000000 ) ) ;
#251 = COORDINATED_UNIVERSAL_TIME_OFFSET ( 1, 0, .AHEAD. ) ;
#252 = PERSON_AND_ORGANIZATION ( #262, #20 ) ;
#253 = LOCAL_TIME ( 12, 24, 12.00000000000000000, #155 ) ;
#254 = EDGE_CURVE ( 'NONE', #127, #55, #303, .T. ) ;
#255 = MANIFOLD_SOLID_BREP ( 'Zaoblit1', #197 ) ;
#256 = EDGE_LOOP ( 'NONE', ( #77, #188, #265, #288 ) ) ;
#257 = EDGE_LOOP ( 'NONE', ( #198, #166 ) ) ;
#258 = AXIS2_PLACEMENT_3D ( 'NONE', #52, #29, #147 ) ;
#259 = VECTOR ( 'NONE', #133, 1000.000000000000000 ) ;
#260 = ORIENTED_EDGE ( 'NONE', *, *, #278, .T. ) ;
#261 = ORIENTED_EDGE ( 'NONE', *, *, #161, .T. ) ;
#262 = PERSON ( 'NEURÈENÝ', 'NEURÈENÝ', 'NEURÈENÝ', ('NEURÈENÝ'), ('NEURÈENÝ'), ('NEURÈENÝ') ) ;
#263 = ORIENTED_EDGE ( 'NONE', *, *, #128, .T. ) ;
#264 = EDGE_CURVE ( 'NONE', #213, #186, #46, .T. ) ;
#265 = ORIENTED_EDGE ( 'NONE', *, *, #294, .T. ) ;
#266 = VECTOR ( 'NONE', #100, 1000.000000000000000 ) ;
#267 = CC_DESIGN_APPROVAL ( #284, ( #98 ) ) ;
#268 = CARTESIAN_POINT ( 'NONE',  ( 0.000000000000000000, 0.000000000000000000, 161.5000000000000000 ) ) ;
#269 = CARTESIAN_POINT ( 'NONE',  ( -0.6500000000000000222, 0.000000000000000000, 161.5000000000000000 ) ) ;
#270 = PLANE ( 'NONE',  #119 ) ;
#271 = CALENDAR_DATE ( 2022, 20, 6 ) ;
#272 = APPROVAL_PERSON_ORGANIZATION ( #22, #284, #203 ) ;
#273 = CARTESIAN_POINT ( 'NONE',  ( -1.500000000000000222, 0.000000000000000000, 1.500000000000000000 ) ) ;
#274 = DIRECTION ( 'NONE',  ( 1.000000000000000000, 0.000000000000000000, 0.000000000000000000 ) ) ;
#275 = PRODUCT_DEFINITION_SHAPE ( 'NONE', 'NONE',  #28 ) ;
#276 = CARTESIAN_POINT ( 'NONE',  ( 0.000000000000000000, 0.000000000000000000, 0.000000000000000000 ) ) ;
#277 = PERSON_AND_ORGANIZATION_ROLE ( 'classification_officer' ) ;
#278 = EDGE_CURVE ( 'NONE', #24, #75, #32, .T. ) ;
#279 = FACE_OUTER_BOUND ( 'NONE', #256, .T. ) ;
#280 = APPLICATION_PROTOCOL_DEFINITION ( 'international standard', 'config_control_design', 1994, #212 ) ;
#281 = PRODUCT_RELATED_PRODUCT_CATEGORY ( 'detail', '', ( #66 ) ) ;
#282 = DIRECTION ( 'NONE',  ( 0.000000000000000000, 0.000000000000000000, -1.000000000000000000 ) ) ;
#283 = SHAPE_DEFINITION_REPRESENTATION ( #275, #73 ) ;
#284 = APPROVAL ( #134, 'NEURÈENÝ' ) ;
#285 = CIRCLE ( 'NONE', #258, 0.8499999999999999778 ) ;
#286 = AXIS2_PLACEMENT_3D ( 'NONE', #110, #179, #226 ) ;
#287 = CARTESIAN_POINT ( 'NONE',  ( 0.000000000000000000, 0.000000000000000000, 161.5000000000000000 ) ) ;
#288 = ORIENTED_EDGE ( 'NONE', *, *, #3, .F. ) ;
#289 = CARTESIAN_POINT ( 'NONE',  ( 0.000000000000000000, 0.000000000000000000, 1.700000000000007061 ) ) ;
#290 = AXIS2_PLACEMENT_3D ( 'NONE', #307, #27, #123 ) ;
#291 = ORIENTED_EDGE ( 'NONE', *, *, #72, .F. ) ;
#292 = ADVANCED_FACE ( 'NONE', ( #207 ), #71, .F. ) ;
#293 = ORIENTED_EDGE ( 'NONE', *, *, #42, .T. ) ;
#294 = EDGE_CURVE ( 'NONE', #24, #127, #247, .T. ) ;
#295 = EDGE_LOOP ( 'NONE', ( #57, #70 ) ) ;
#296 = DESIGN_CONTEXT ( 'detailed design', #183, 'design' ) ;
#297 = FACE_OUTER_BOUND ( 'NONE', #199, .T. ) ;
#298 = AXIS2_PLACEMENT_3D ( 'NONE', #130, #175, #89 ) ;
#299 = DIRECTION ( 'NONE',  ( 0.000000000000000000, 0.000000000000000000, 1.000000000000000000 ) ) ;
#300 = APPLICATION_PROTOCOL_DEFINITION ( 'international standard', 'config_control_design', 1994, #183 ) ;
#301 = CARTESIAN_POINT ( 'NONE',  ( 0.8499999999999999778, 0.000000000000000000, 1.500000000000003553 ) ) ;
#302 = APPROVAL_ROLE ( '' ) ;
#303 = CIRCLE ( 'NONE', #165, 0.8499999999999999778 ) ;
#304 = CARTESIAN_POINT ( 'NONE',  ( 1.500000000000000222, 1.836970198721030181E-16, 1.500000000000000000 ) ) ;
#305 = CALENDAR_DATE ( 2022, 20, 6 ) ;
#306 = ADVANCED_FACE ( 'NONE', ( #279 ), #138, .F. ) ;
#307 = CARTESIAN_POINT ( 'NONE',  ( 0.000000000000000000, 0.000000000000000000, 1.500000000000000000 ) ) ;
ENDSEC;
END-ISO-10303-21;
