ISO-10303-21;
HEADER;
FILE_DESCRIPTION (( 'STEP AP203' ),
    '1' );
FILE_NAME ('2e7f.STEP',
    '2022-06-20T10:04:15',
    ( '' ),
    ( '' ),
    'SwSTEP 2.0',
    'SolidWorks 2019',
    '' );
FILE_SCHEMA (( 'CONFIG_CONTROL_DESIGN' ));
ENDSEC;

DATA;
#1 = VERTEX_POINT ( 'NONE', #190 ) ;
#2 = DATE_TIME_ROLE ( 'classification_date' ) ;
#3 = EDGE_CURVE ( 'NONE', #127, #262, #302, .T. ) ;
#4 = CARTESIAN_POINT ( 'NONE',  ( 0.000000000000000000, 0.000000000000000000, 3.000000000000000000 ) ) ;
#5 =( GEOMETRIC_REPRESENTATION_CONTEXT ( 3 ) GLOBAL_UNCERTAINTY_ASSIGNED_CONTEXT ( ( #277 ) ) GLOBAL_UNIT_ASSIGNED_CONTEXT ( ( #195, #293, #295 ) ) REPRESENTATION_CONTEXT ( 'NONE', 'WORKASPACE' ) );
#6 = APPROVAL ( #254, 'NEURÈENÝ' ) ;
#7 = VERTEX_POINT ( 'NONE', #146 ) ;
#8 = DIRECTION ( 'NONE',  ( 0.000000000000000000, 0.000000000000000000, 1.000000000000000000 ) ) ;
#9 = VERTEX_POINT ( 'NONE', #232 ) ;
#10 = DIRECTION ( 'NONE',  ( 1.000000000000000000, 0.000000000000000000, 0.000000000000000000 ) ) ;
#11 = LINE ( 'NONE', #193, #109 ) ;
#12 = AXIS2_PLACEMENT_3D ( 'NONE', #298, #289, #105 ) ;
#13 = CARTESIAN_POINT ( 'NONE',  ( -2.700000000000000178, 3.306546357697853733E-16, 2.999999999999997335 ) ) ;
#14 = VERTEX_POINT ( 'NONE', #263 ) ;
#15 = CARTESIAN_POINT ( 'NONE',  ( 0.000000000000000000, 0.000000000000000000, 0.000000000000000000 ) ) ;
#16 = LINE ( 'NONE', #64, #154 ) ;
#17 = DIRECTION ( 'NONE',  ( 1.000000000000000000, 0.000000000000000000, 0.000000000000000000 ) ) ;
#18 = EDGE_CURVE ( 'NONE', #30, #32, #11, .T. ) ;
#19 = DIRECTION ( 'NONE',  ( 0.000000000000000000, 0.000000000000000000, 1.000000000000000000 ) ) ;
#20 = AXIS2_PLACEMENT_3D ( 'NONE', #273, #266, #189 ) ;
#21 = APPROVAL_DATE_TIME ( #90, #238 ) ;
#22 = APPROVAL_PERSON_ORGANIZATION ( #222, #124, #135 ) ;
#23 = DIRECTION ( 'NONE',  ( 1.000000000000000000, 0.000000000000000000, -0.000000000000000000 ) ) ;
#24 = PERSON_AND_ORGANIZATION ( #89, #182 ) ;
#25 = PERSON_AND_ORGANIZATION ( #89, #182 ) ;
#26 = CALENDAR_DATE ( 2022, 20, 6 ) ;
#27 = AXIS2_PLACEMENT_3D ( 'NONE', #151, #212, #38 ) ;
#28 = DIRECTION ( 'NONE',  ( 0.000000000000000000, 0.000000000000000000, 1.000000000000000000 ) ) ;
#29 = EDGE_CURVE ( 'NONE', #127, #32, #247, .T. ) ;
#30 = VERTEX_POINT ( 'NONE', #270 ) ;
#31 = DIRECTION ( 'NONE',  ( -0.000000000000000000, -0.000000000000000000, -1.000000000000000000 ) ) ;
#32 = VERTEX_POINT ( 'NONE', #292 ) ;
#33 = CYLINDRICAL_SURFACE ( 'NONE', #297, 5.000000000000000000 ) ;
#34 = AXIS2_PLACEMENT_3D ( 'NONE', #84, #28, #287 ) ;
#35 = DIRECTION ( 'NONE',  ( 0.000000000000000000, 0.000000000000000000, 1.000000000000000000 ) ) ;
#36 = CARTESIAN_POINT ( 'NONE',  ( 2.700000000000000178, 0.000000000000000000, 2.999999999999997335 ) ) ;
#37 = VERTEX_POINT ( 'NONE', #236 ) ;
#38 = DIRECTION ( 'NONE',  ( 1.000000000000000000, 0.000000000000000000, -0.000000000000000000 ) ) ;
#39 = CARTESIAN_POINT ( 'NONE',  ( 0.000000000000000000, 0.000000000000000000, 0.000000000000000000 ) ) ;
#40 = ADVANCED_FACE ( 'NONE', ( #187 ), #279, .F. ) ;
#41 = CARTESIAN_POINT ( 'NONE',  ( 0.000000000000000000, 0.000000000000000000, 128.0000000000000000 ) ) ;
#42 = CYLINDRICAL_SURFACE ( 'NONE', #221, 2.500000000000000000 ) ;
#43 = CALENDAR_DATE ( 2022, 20, 6 ) ;
#44 = CC_DESIGN_PERSON_AND_ORGANIZATION_ASSIGNMENT ( #24, #305, ( #167 ) ) ;
#45 = FACE_OUTER_BOUND ( 'NONE', #229, .T. ) ;
#46 = LOCAL_TIME ( 12, 4, 15.00000000000000000, #69 ) ;
#47 = PERSON_AND_ORGANIZATION ( #89, #182 ) ;
#48 = DATE_AND_TIME ( #26, #282 ) ;
#49 = AXIS2_PLACEMENT_3D ( 'NONE', #82, #235, #172 ) ;
#50 = ADVANCED_FACE ( 'NONE', ( #120 ), #209, .T. ) ;
#51 = CC_DESIGN_PERSON_AND_ORGANIZATION_ASSIGNMENT ( #25, #206, ( #306 ) ) ;
#52 = EDGE_LOOP ( 'NONE', ( #173, #81 ) ) ;
#53 = ORIENTED_EDGE ( 'NONE', *, *, #108, .T. ) ;
#54 = DIRECTION ( 'NONE',  ( 1.000000000000000000, 0.000000000000000000, 0.000000000000000000 ) ) ;
#55 = AXIS2_PLACEMENT_3D ( 'NONE', #219, #63, #217 ) ;
#56 = ORIENTED_EDGE ( 'NONE', *, *, #269, .T. ) ;
#57 = APPROVAL_PERSON_ORGANIZATION ( #252, #238, #202 ) ;
#58 = ORIENTED_EDGE ( 'NONE', *, *, #228, .F. ) ;
#59 = DIRECTION ( 'NONE',  ( 0.000000000000000000, 0.000000000000000000, 1.000000000000000000 ) ) ;
#60 = ORIENTED_EDGE ( 'NONE', *, *, #18, .T. ) ;
#61 = DIRECTION ( 'NONE',  ( -1.000000000000000000, 1.224646799147353207E-16, 0.000000000000000000 ) ) ;
#62 = TOROIDAL_SURFACE ( 'NONE', #140, 2.700000000000000178, 0.2000000000000000111 ) ;
#63 = DIRECTION ( 'NONE',  ( 0.000000000000000000, 0.000000000000000000, 1.000000000000000000 ) ) ;
#64 = CARTESIAN_POINT ( 'NONE',  ( -5.000000000000000000, 0.000000000000000000, 3.000000000000000000 ) ) ;
#65 = EDGE_CURVE ( 'NONE', #1, #14, #116, .T. ) ;
#66 = DIRECTION ( 'NONE',  ( 0.000000000000000000, 0.000000000000000000, 1.000000000000000000 ) ) ;
#67 = CARTESIAN_POINT ( 'NONE',  ( 0.000000000000000000, 0.000000000000000000, 128.0000000000000000 ) ) ;
#68 = APPLICATION_PROTOCOL_DEFINITION ( 'international standard', 'config_control_design', 1994, #251 ) ;
#69 = COORDINATED_UNIVERSAL_TIME_OFFSET ( 1, 0, .AHEAD. ) ;
#70 = APPROVAL_STATUS ( 'not_yet_approved' ) ;
#71 = EDGE_CURVE ( 'NONE', #7, #127, #274, .T. ) ;
#72 = CIRCLE ( 'NONE', #234, 2.700000000000000178 ) ;
#73 = CC_DESIGN_APPROVAL ( #6, ( #178 ) ) ;
#74 = EDGE_CURVE ( 'NONE', #37, #9, #126, .T. ) ;
#75 = ORIENTED_EDGE ( 'NONE', *, *, #71, .F. ) ;
#76 = ORIENTED_EDGE ( 'NONE', *, *, #280, .T. ) ;
#77 = DIRECTION ( 'NONE',  ( -0.000000000000000000, -0.000000000000000000, -1.000000000000000000 ) ) ;
#78 = AXIS2_PLACEMENT_3D ( 'NONE', #106, #168, #61 ) ;
#79 = AXIS2_PLACEMENT_3D ( 'NONE', #39, #19, #23 ) ;
#80 = EDGE_LOOP ( 'NONE', ( #214, #290, #259, #265 ) ) ;
#81 = ORIENTED_EDGE ( 'NONE', *, *, #65, .T. ) ;
#82 = CARTESIAN_POINT ( 'NONE',  ( 0.000000000000000000, 0.000000000000000000, 3.199999999999994404 ) ) ;
#83 = ORIENTED_EDGE ( 'NONE', *, *, #162, .F. ) ;
#84 = CARTESIAN_POINT ( 'NONE',  ( 0.000000000000000000, 0.000000000000000000, 3.199999999999994404 ) ) ;
#85 = DIRECTION ( 'NONE',  ( 1.000000000000000000, 0.000000000000000000, 0.000000000000000000 ) ) ;
#86 = EDGE_CURVE ( 'NONE', #1, #9, #246, .T. ) ;
#87 = CARTESIAN_POINT ( 'NONE',  ( 0.000000000000000000, 0.000000000000000000, 3.000000000000000000 ) ) ;
#88 = FACE_BOUND ( 'NONE', #101, .T. ) ;
#89 = PERSON ( 'NEURÈENÝ', 'NEURÈENÝ', 'NEURÈENÝ', ('NEURÈENÝ'), ('NEURÈENÝ'), ('NEURÈENÝ') ) ;
#90 = DATE_AND_TIME ( #303, #103 ) ;
#91 = DIRECTION ( 'NONE',  ( 1.000000000000000000, 0.000000000000000000, 0.000000000000000000 ) ) ;
#92 = COORDINATED_UNIVERSAL_TIME_OFFSET ( 1, 0, .AHEAD. ) ;
#93 = APPROVAL_DATE_TIME ( #48, #124 ) ;
#94 = CC_DESIGN_DATE_AND_TIME_ASSIGNMENT ( #180, #276, ( #178 ) ) ;
#95 = ORIENTED_EDGE ( 'NONE', *, *, #3, .T. ) ;
#96 = ORIENTED_EDGE ( 'NONE', *, *, #29, .T. ) ;
#97 = ORIENTED_EDGE ( 'NONE', *, *, #280, .F. ) ;
#98 = ORIENTED_EDGE ( 'NONE', *, *, #162, .T. ) ;
#99 = CARTESIAN_POINT ( 'NONE',  ( 0.000000000000000000, 0.000000000000000000, 0.000000000000000000 ) ) ;
#100 = CC_DESIGN_PERSON_AND_ORGANIZATION_ASSIGNMENT ( #47, #153, ( #179 ) ) ;
#101 = EDGE_LOOP ( 'NONE', ( #166, #56 ) ) ;
#102 = DIRECTION ( 'NONE',  ( 1.000000000000000000, 0.000000000000000000, 0.000000000000000000 ) ) ;
#103 = LOCAL_TIME ( 12, 4, 15.00000000000000000, #225 ) ;
#104 = ORIENTED_EDGE ( 'NONE', *, *, #253, .F. ) ;
#105 = DIRECTION ( 'NONE',  ( -1.000000000000000000, 0.000000000000000000, 0.000000000000000000 ) ) ;
#106 = CARTESIAN_POINT ( 'NONE',  ( -2.700000000000000178, 3.306546357697853733E-16, 3.199999999999994404 ) ) ;
#107 = FACE_OUTER_BOUND ( 'NONE', #213, .T. ) ;
#108 = EDGE_CURVE ( 'NONE', #14, #37, #16, .T. ) ;
#109 = VECTOR ( 'NONE', #239, 1000.000000000000000 ) ;
#110 = DIRECTION ( 'NONE',  ( -0.000000000000000000, -0.000000000000000000, -1.000000000000000000 ) ) ;
#111 = DIRECTION ( 'NONE',  ( 1.000000000000000000, 0.000000000000000000, 0.000000000000000000 ) ) ;
#112 = DIRECTION ( 'NONE',  ( 0.000000000000000000, 0.000000000000000000, 1.000000000000000000 ) ) ;
#113 = CIRCLE ( 'NONE', #55, 5.000000000000000000 ) ;
#114 = CARTESIAN_POINT ( 'NONE',  ( 0.000000000000000000, 0.000000000000000000, 0.000000000000000000 ) ) ;
#115 = DATE_AND_TIME ( #307, #192 ) ;
#116 = CIRCLE ( 'NONE', #142, 5.000000000000000000 ) ;
#117 = CC_DESIGN_SECURITY_CLASSIFICATION ( #306, ( #179 ) ) ;
#118 = PERSON_AND_ORGANIZATION_ROLE ( 'creator' ) ;
#119 = ADVANCED_FACE ( 'NONE', ( #45 ), #42, .T. ) ;
#120 = FACE_OUTER_BOUND ( 'NONE', #216, .T. ) ;
#121 = ADVANCED_FACE ( 'NONE', ( #244 ), #134, .F. ) ;
#122 = CIRCLE ( 'NONE', #20, 0.2000000000000000944 ) ;
#123 = ORIENTED_EDGE ( 'NONE', *, *, #108, .F. ) ;
#124 = APPROVAL ( #70, 'NEURÈENÝ' ) ;
#125 = ORIENTED_EDGE ( 'NONE', *, *, #74, .T. ) ;
#126 = CIRCLE ( 'NONE', #240, 5.000000000000000000 ) ;
#127 = VERTEX_POINT ( 'NONE', #132 ) ;
#128 = EDGE_CURVE ( 'NONE', #188, #262, #208, .T. ) ;
#129 = FACE_OUTER_BOUND ( 'NONE', #160, .T. ) ;
#130 = ORIENTED_EDGE ( 'NONE', *, *, #74, .F. ) ;
#131 = ADVANCED_FACE ( 'NONE', ( #88, #299 ), #296, .T. ) ;
#132 = CARTESIAN_POINT ( 'NONE',  ( -2.500000000000000000, 0.000000000000000000, 3.199999999999994404 ) ) ;
#133 = CARTESIAN_POINT ( 'NONE',  ( 0.000000000000000000, 0.000000000000000000, 3.000000000000000000 ) ) ;
#134 = PLANE ( 'NONE',  #79 ) ;
#135 = APPROVAL_ROLE ( '' ) ;
#136 = DIRECTION ( 'NONE',  ( 1.000000000000000000, 0.000000000000000000, 0.000000000000000000 ) ) ;
#137 = PERSON_AND_ORGANIZATION ( #89, #182 ) ;
#138 = APPROVAL_STATUS ( 'not_yet_approved' ) ;
#139 = PERSON_AND_ORGANIZATION_ROLE ( 'creator' ) ;
#140 = AXIS2_PLACEMENT_3D ( 'NONE', #245, #271, #102 ) ;
#141 = DATE_AND_TIME ( #43, #185 ) ;
#142 = AXIS2_PLACEMENT_3D ( 'NONE', #177, #152, #201 ) ;
#143 = ORIENTED_EDGE ( 'NONE', *, *, #29, .F. ) ;
#144 = CC_DESIGN_APPROVAL ( #124, ( #179 ) ) ;
#145 = CARTESIAN_POINT ( 'NONE',  ( 0.000000000000000000, 0.000000000000000000, 3.199999999999994404 ) ) ;
#146 = CARTESIAN_POINT ( 'NONE',  ( -2.500000000000000000, 0.000000000000000000, 128.0000000000000000 ) ) ;
#147 = CARTESIAN_POINT ( 'NONE',  ( 0.000000000000000000, 0.000000000000000000, 128.0000000000000000 ) ) ;
#148 = ORIENTED_EDGE ( 'NONE', *, *, #194, .T. ) ;
#149 = CIRCLE ( 'NONE', #184, 5.000000000000000000 ) ;
#150 = DIRECTION ( 'NONE',  ( -0.000000000000000000, -0.000000000000000000, -1.000000000000000000 ) ) ;
#151 = CARTESIAN_POINT ( 'NONE',  ( 0.000000000000000000, 0.000000000000000000, 128.0000000000000000 ) ) ;
#152 = DIRECTION ( 'NONE',  ( 0.000000000000000000, 0.000000000000000000, 1.000000000000000000 ) ) ;
#153 = PERSON_AND_ORGANIZATION_ROLE ( 'design_supplier' ) ;
#154 = VECTOR ( 'NONE', #249, 1000.000000000000000 ) ;
#155 = DIRECTION ( 'NONE',  ( -1.000000000000000000, 0.000000000000000000, 0.000000000000000000 ) ) ;
#156 = MECHANICAL_CONTEXT ( 'NONE', #258, 'mechanical' ) ;
#157 = CC_DESIGN_APPROVAL ( #238, ( #306 ) ) ;
#158 = APPROVAL_DATE_TIME ( #115, #6 ) ;
#159 = COORDINATED_UNIVERSAL_TIME_OFFSET ( 1, 0, .AHEAD. ) ;
#160 = EDGE_LOOP ( 'NONE', ( #143, #95, #233, #58 ) ) ;
#161 = CIRCLE ( 'NONE', #199, 2.500000000000000000 ) ;
#162 = EDGE_CURVE ( 'NONE', #9, #37, #149, .T. ) ;
#163 = AXIS2_PLACEMENT_3D ( 'NONE', #145, #35, #54 ) ;
#164 = ORIENTED_EDGE ( 'NONE', *, *, #86, .F. ) ;
#165 = EDGE_LOOP ( 'NONE', ( #164, #242, #53, #125 ) ) ;
#166 = ORIENTED_EDGE ( 'NONE', *, *, #128, .T. ) ;
#167 = PRODUCT ( '2e7f', '2e7f', '', ( #156 ) ) ;
#168 = DIRECTION ( 'NONE',  ( 1.224646799147353207E-16, 1.000000000000000000, -0.000000000000000000 ) ) ;
#169 = EDGE_LOOP ( 'NONE', ( #130, #83 ) ) ;
#170 = DIRECTION ( 'NONE',  ( -1.000000000000000000, 0.000000000000000000, 0.000000000000000000 ) ) ;
#171 = ORIENTED_EDGE ( 'NONE', *, *, #253, .T. ) ;
#172 = DIRECTION ( 'NONE',  ( 1.000000000000000000, 0.000000000000000000, 0.000000000000000000 ) ) ;
#173 = ORIENTED_EDGE ( 'NONE', *, *, #275, .T. ) ;
#174 = APPLICATION_PROTOCOL_DEFINITION ( 'international standard', 'config_control_design', 1994, #258 ) ;
#175 = CIRCLE ( 'NONE', #49, 2.500000000000000000 ) ;
#176 = DIRECTION ( 'NONE',  ( -0.000000000000000000, -0.000000000000000000, -1.000000000000000000 ) ) ;
#177 = CARTESIAN_POINT ( 'NONE',  ( 0.000000000000000000, 0.000000000000000000, 3.000000000000000000 ) ) ;
#178 = PRODUCT_DEFINITION ( 'NEZNÁMÝ', '', #179, #304 ) ;
#179 = PRODUCT_DEFINITION_FORMATION_WITH_SPECIFIED_SOURCE ( 'LIBOVOLNÝ', '', #167, .NOT_KNOWN. ) ;
#180 = DATE_AND_TIME ( #250, #46 ) ;
#181 = AXIS2_PLACEMENT_3D ( 'NONE', #147, #59, #111 ) ;
#182 = ORGANIZATION ( 'NEURÈENÝ', 'NEURÈENÝ', '' ) ;
#183 = PRODUCT_RELATED_PRODUCT_CATEGORY ( 'detail', '', ( #167 ) ) ;
#184 = AXIS2_PLACEMENT_3D ( 'NONE', #99, #291, #17 ) ;
#185 = LOCAL_TIME ( 12, 4, 15.00000000000000000, #159 ) ;
#186 = ADVANCED_FACE ( 'NONE', ( #129 ), #62, .F. ) ;
#187 = FACE_OUTER_BOUND ( 'NONE', #80, .T. ) ;
#188 = VERTEX_POINT ( 'NONE', #36 ) ;
#189 = DIRECTION ( 'NONE',  ( 0.000000000000000000, 0.000000000000000000, -1.000000000000000000 ) ) ;
#190 = CARTESIAN_POINT ( 'NONE',  ( 5.000000000000000000, 6.123233995736766282E-16, 3.000000000000000000 ) ) ;
#191 = DIRECTION ( 'NONE',  ( 1.000000000000000000, 0.000000000000000000, -0.000000000000000000 ) ) ;
#192 = LOCAL_TIME ( 12, 4, 15.00000000000000000, #224 ) ;
#193 = CARTESIAN_POINT ( 'NONE',  ( 2.500000000000000000, 3.061616997868383141E-16, 128.0000000000000000 ) ) ;
#194 = EDGE_CURVE ( 'NONE', #32, #127, #175, .T. ) ;
#195 =( LENGTH_UNIT ( ) NAMED_UNIT ( * ) SI_UNIT ( .MILLI., .METRE. ) );
#196 = ADVANCED_FACE ( 'NONE', ( #237 ), #33, .T. ) ;
#197 = DIRECTION ( 'NONE',  ( 1.000000000000000000, 0.000000000000000000, 0.000000000000000000 ) ) ;
#198 = CARTESIAN_POINT ( 'NONE',  ( 0.000000000000000000, 0.000000000000000000, 3.000000000000000000 ) ) ;
#199 = AXIS2_PLACEMENT_3D ( 'NONE', #41, #8, #85 ) ;
#200 = ADVANCED_FACE ( 'NONE', ( #107 ), #243, .T. ) ;
#201 = DIRECTION ( 'NONE',  ( 1.000000000000000000, 0.000000000000000000, 0.000000000000000000 ) ) ;
#202 = APPROVAL_ROLE ( '' ) ;
#203 = DIRECTION ( 'NONE',  ( -1.000000000000000000, 0.000000000000000000, 0.000000000000000000 ) ) ;
#204 = SECURITY_CLASSIFICATION_LEVEL ( 'unclassified' ) ;
#205 = VECTOR ( 'NONE', #176, 1000.000000000000000 ) ;
#206 = PERSON_AND_ORGANIZATION_ROLE ( 'classification_officer' ) ;
#207 = CC_DESIGN_PERSON_AND_ORGANIZATION_ASSIGNMENT ( #227, #118, ( #179 ) ) ;
#208 = CIRCLE ( 'NONE', #255, 2.700000000000000178 ) ;
#209 = CYLINDRICAL_SURFACE ( 'NONE', #226, 5.000000000000000000 ) ;
#210 = MANIFOLD_SOLID_BREP ( 'Zaoblit1', #231 ) ;
#211 = ORIENTED_EDGE ( 'NONE', *, *, #71, .T. ) ;
#212 = DIRECTION ( 'NONE',  ( 0.000000000000000000, 0.000000000000000000, 1.000000000000000000 ) ) ;
#213 = EDGE_LOOP ( 'NONE', ( #76, #171 ) ) ;
#214 = ORIENTED_EDGE ( 'NONE', *, *, #3, .F. ) ;
#215 = DIRECTION ( 'NONE',  ( 0.000000000000000000, 0.000000000000000000, 1.000000000000000000 ) ) ;
#216 = EDGE_LOOP ( 'NONE', ( #288, #267, #98, #123 ) ) ;
#217 = DIRECTION ( 'NONE',  ( 1.000000000000000000, 0.000000000000000000, 0.000000000000000000 ) ) ;
#218 = CARTESIAN_POINT ( 'NONE',  ( 5.000000000000000000, 6.123233995736766282E-16, 3.000000000000000000 ) ) ;
#219 = CARTESIAN_POINT ( 'NONE',  ( 0.000000000000000000, 0.000000000000000000, 3.000000000000000000 ) ) ;
#220 = CARTESIAN_POINT ( 'NONE',  ( 0.000000000000000000, 0.000000000000000000, 3.000000000000000000 ) ) ;
#221 = AXIS2_PLACEMENT_3D ( 'NONE', #67, #150, #155 ) ;
#222 = PERSON_AND_ORGANIZATION ( #89, #182 ) ;
#223 = CARTESIAN_POINT ( 'NONE',  ( -2.500000000000000000, 0.000000000000000000, 128.0000000000000000 ) ) ;
#224 = COORDINATED_UNIVERSAL_TIME_OFFSET ( 1, 0, .AHEAD. ) ;
#225 = COORDINATED_UNIVERSAL_TIME_OFFSET ( 1, 0, .AHEAD. ) ;
#226 = AXIS2_PLACEMENT_3D ( 'NONE', #4, #77, #203 ) ;
#227 = PERSON_AND_ORGANIZATION ( #89, #182 ) ;
#228 = EDGE_CURVE ( 'NONE', #32, #188, #122, .T. ) ;
#229 = EDGE_LOOP ( 'NONE', ( #230, #97, #211, #96 ) ) ;
#230 = ORIENTED_EDGE ( 'NONE', *, *, #18, .F. ) ;
#231 = CLOSED_SHELL ( 'NONE', ( #186, #286, #50, #196, #131, #121, #119, #200, #40 ) ) ;
#232 = CARTESIAN_POINT ( 'NONE',  ( 5.000000000000000000, 6.123233995736766282E-16, 0.000000000000000000 ) ) ;
#233 = ORIENTED_EDGE ( 'NONE', *, *, #128, .F. ) ;
#234 = AXIS2_PLACEMENT_3D ( 'NONE', #133, #31, #10 ) ;
#235 = DIRECTION ( 'NONE',  ( 0.000000000000000000, 0.000000000000000000, 1.000000000000000000 ) ) ;
#236 = CARTESIAN_POINT ( 'NONE',  ( -5.000000000000000000, 0.000000000000000000, 0.000000000000000000 ) ) ;
#237 = FACE_OUTER_BOUND ( 'NONE', #165, .T. ) ;
#238 = APPROVAL ( #138, 'NEURÈENÝ' ) ;
#239 = DIRECTION ( 'NONE',  ( -0.000000000000000000, -0.000000000000000000, -1.000000000000000000 ) ) ;
#240 = AXIS2_PLACEMENT_3D ( 'NONE', #114, #112, #136 ) ;
#241 = FACE_OUTER_BOUND ( 'NONE', #294, .T. ) ;
#242 = ORIENTED_EDGE ( 'NONE', *, *, #275, .F. ) ;
#243 = PLANE ( 'NONE',  #27 ) ;
#244 = FACE_OUTER_BOUND ( 'NONE', #169, .T. ) ;
#245 = CARTESIAN_POINT ( 'NONE',  ( 0.000000000000000000, 0.000000000000000000, 3.199999999999994404 ) ) ;
#246 = LINE ( 'NONE', #218, #283 ) ;
#247 = CIRCLE ( 'NONE', #163, 2.500000000000000000 ) ;
#248 = APPROVAL_ROLE ( '' ) ;
#249 = DIRECTION ( 'NONE',  ( -0.000000000000000000, -0.000000000000000000, -1.000000000000000000 ) ) ;
#250 = CALENDAR_DATE ( 2022, 20, 6 ) ;
#251 = APPLICATION_CONTEXT ( 'configuration controlled 3d designs of mechanical parts and assemblies' ) ;
#252 = PERSON_AND_ORGANIZATION ( #89, #182 ) ;
#253 = EDGE_CURVE ( 'NONE', #30, #7, #161, .T. ) ;
#254 = APPROVAL_STATUS ( 'not_yet_approved' ) ;
#255 = AXIS2_PLACEMENT_3D ( 'NONE', #220, #110, #197 ) ;
#256 = APPROVAL_PERSON_ORGANIZATION ( #278, #6, #248 ) ;
#257 = CC_DESIGN_PERSON_AND_ORGANIZATION_ASSIGNMENT ( #137, #139, ( #178 ) ) ;
#258 = APPLICATION_CONTEXT ( 'configuration controlled 3d designs of mechanical parts and assemblies' ) ;
#259 = ORIENTED_EDGE ( 'NONE', *, *, #228, .T. ) ;
#260 = PRODUCT_DEFINITION_SHAPE ( 'NONE', 'NONE',  #178 ) ;
#261 = ADVANCED_BREP_SHAPE_REPRESENTATION ( '2e7f', ( #210, #285 ), #5 ) ;
#262 = VERTEX_POINT ( 'NONE', #13 ) ;
#263 = CARTESIAN_POINT ( 'NONE',  ( -5.000000000000000000, 0.000000000000000000, 3.000000000000000000 ) ) ;
#264 = CYLINDRICAL_SURFACE ( 'NONE', #12, 2.500000000000000000 ) ;
#265 = ORIENTED_EDGE ( 'NONE', *, *, #269, .F. ) ;
#266 = DIRECTION ( 'NONE',  ( 0.000000000000000000, -1.000000000000000000, 0.000000000000000000 ) ) ;
#267 = ORIENTED_EDGE ( 'NONE', *, *, #86, .T. ) ;
#268 = DIRECTION ( 'NONE',  ( -0.000000000000000000, -0.000000000000000000, -1.000000000000000000 ) ) ;
#269 = EDGE_CURVE ( 'NONE', #262, #188, #72, .T. ) ;
#270 = CARTESIAN_POINT ( 'NONE',  ( 2.500000000000000000, 3.061616997868383141E-16, 128.0000000000000000 ) ) ;
#271 = DIRECTION ( 'NONE',  ( 0.000000000000000000, 0.000000000000000000, 1.000000000000000000 ) ) ;
#272 = DIRECTION ( 'NONE',  ( -0.000000000000000000, -0.000000000000000000, -1.000000000000000000 ) ) ;
#273 = CARTESIAN_POINT ( 'NONE',  ( 2.700000000000000178, 0.000000000000000000, 3.199999999999994404 ) ) ;
#274 = LINE ( 'NONE', #223, #205 ) ;
#275 = EDGE_CURVE ( 'NONE', #14, #1, #113, .T. ) ;
#276 = DATE_TIME_ROLE ( 'creation_date' ) ;
#277 = UNCERTAINTY_MEASURE_WITH_UNIT (LENGTH_MEASURE( 1.000000000000000082E-05 ), #195, 'distance_accuracy_value', 'NONE');
#278 = PERSON_AND_ORGANIZATION ( #89, #182 ) ;
#279 = TOROIDAL_SURFACE ( 'NONE', #34, 2.700000000000000178, 0.2000000000000000111 ) ;
#280 = EDGE_CURVE ( 'NONE', #7, #30, #281, .T. ) ;
#281 = CIRCLE ( 'NONE', #181, 2.500000000000000000 ) ;
#282 = LOCAL_TIME ( 12, 4, 15.00000000000000000, #92 ) ;
#283 = VECTOR ( 'NONE', #272, 1000.000000000000000 ) ;
#284 = AXIS2_PLACEMENT_3D ( 'NONE', #87, #215, #191 ) ;
#285 = AXIS2_PLACEMENT_3D ( 'NONE', #15, #66, #91 ) ;
#286 = ADVANCED_FACE ( 'NONE', ( #241 ), #264, .T. ) ;
#287 = DIRECTION ( 'NONE',  ( 1.000000000000000000, 0.000000000000000000, 0.000000000000000000 ) ) ;
#288 = ORIENTED_EDGE ( 'NONE', *, *, #65, .F. ) ;
#289 = DIRECTION ( 'NONE',  ( -0.000000000000000000, -0.000000000000000000, -1.000000000000000000 ) ) ;
#290 = ORIENTED_EDGE ( 'NONE', *, *, #194, .F. ) ;
#291 = DIRECTION ( 'NONE',  ( 0.000000000000000000, 0.000000000000000000, 1.000000000000000000 ) ) ;
#292 = CARTESIAN_POINT ( 'NONE',  ( 2.500000000000000000, 3.061616997868383141E-16, 3.199999999999994404 ) ) ;
#293 =( NAMED_UNIT ( * ) PLANE_ANGLE_UNIT ( ) SI_UNIT ( $, .RADIAN. ) );
#294 = EDGE_LOOP ( 'NONE', ( #104, #60, #148, #75 ) ) ;
#295 =( NAMED_UNIT ( * ) SI_UNIT ( $, .STERADIAN. ) SOLID_ANGLE_UNIT ( ) );
#296 = PLANE ( 'NONE',  #284 ) ;
#297 = AXIS2_PLACEMENT_3D ( 'NONE', #198, #268, #170 ) ;
#298 = CARTESIAN_POINT ( 'NONE',  ( 0.000000000000000000, 0.000000000000000000, 128.0000000000000000 ) ) ;
#299 = FACE_OUTER_BOUND ( 'NONE', #52, .T. ) ;
#300 = SHAPE_DEFINITION_REPRESENTATION ( #260, #261 ) ;
#301 = CC_DESIGN_DATE_AND_TIME_ASSIGNMENT ( #141, #2, ( #306 ) ) ;
#302 = CIRCLE ( 'NONE', #78, 0.2000000000000000944 ) ;
#303 = CALENDAR_DATE ( 2022, 20, 6 ) ;
#304 = DESIGN_CONTEXT ( 'detailed design', #251, 'design' ) ;
#305 = PERSON_AND_ORGANIZATION_ROLE ( 'design_owner' ) ;
#306 = SECURITY_CLASSIFICATION ( '', '', #204 ) ;
#307 = CALENDAR_DATE ( 2022, 20, 6 ) ;
ENDSEC;
END-ISO-10303-21;
