ISO-10303-21;
HEADER;
FILE_DESCRIPTION (( 'STEP AP203' ),
    '1' );
FILE_NAME ('eb34.STEP',
    '2022-06-20T09:24:37',
    ( '' ),
    ( '' ),
    'SwSTEP 2.0',
    'SolidWorks 2019',
    '' );
FILE_SCHEMA (( 'CONFIG_CONTROL_DESIGN' ));
ENDSEC;

DATA;
#1 = PERSON_AND_ORGANIZATION ( #94, #98 ) ;
#2 = VERTEX_POINT ( 'NONE', #128 ) ;
#3 = CIRCLE ( 'NONE', #257, 8.000000000000000000 ) ;
#4 = DATE_TIME_ROLE ( 'creation_date' ) ;
#5 = ORIENTED_EDGE ( 'NONE', *, *, #77, .T. ) ;
#6 = PERSON_AND_ORGANIZATION ( #94, #98 ) ;
#7 = ORIENTED_EDGE ( 'NONE', *, *, #9, .F. ) ;
#8 = CIRCLE ( 'NONE', #126, 8.000000000000000000 ) ;
#9 = EDGE_CURVE ( 'NONE', #2, #81, #34, .T. ) ;
#10 = ORIENTED_EDGE ( 'NONE', *, *, #121, .F. ) ;
#11 = TOROIDAL_SURFACE ( 'NONE', #157, 8.200000000000001066, 0.2000000000000000111 ) ;
#12 = DATE_AND_TIME ( #131, #45 ) ;
#13 = ORIENTED_EDGE ( 'NONE', *, *, #280, .F. ) ;
#14 = CARTESIAN_POINT ( 'NONE',  ( 0.000000000000000000, 0.000000000000000000, 167.0000000000000000 ) ) ;
#15 = DIRECTION ( 'NONE',  ( 0.000000000000000000, 0.000000000000000000, 1.000000000000000000 ) ) ;
#16 = CIRCLE ( 'NONE', #64, 0.1999999999999996503 ) ;
#17 = FACE_OUTER_BOUND ( 'NONE', #285, .T. ) ;
#18 = DIRECTION ( 'NONE',  ( -0.000000000000000000, -0.000000000000000000, -1.000000000000000000 ) ) ;
#19 = CARTESIAN_POINT ( 'NONE',  ( -8.000000000000000000, 0.000000000000000000, 7.200000000000011724 ) ) ;
#20 = EDGE_CURVE ( 'NONE', #111, #264, #286, .T. ) ;
#21 = CARTESIAN_POINT ( 'NONE',  ( 0.000000000000000000, 0.000000000000000000, 7.000000000000000000 ) ) ;
#22 = CIRCLE ( 'NONE', #254, 11.00000000000000000 ) ;
#23 = CARTESIAN_POINT ( 'NONE',  ( 0.000000000000000000, 0.000000000000000000, 167.0000000000000000 ) ) ;
#24 = ADVANCED_FACE ( 'NONE', ( #245 ), #141, .T. ) ;
#25 = APPROVAL_ROLE ( '' ) ;
#26 = DIRECTION ( 'NONE',  ( -0.000000000000000000, -0.000000000000000000, -1.000000000000000000 ) ) ;
#27 = CALENDAR_DATE ( 2022, 20, 6 ) ;
#28 = AXIS2_PLACEMENT_3D ( 'NONE', #158, #224, #42 ) ;
#29 = ORIENTED_EDGE ( 'NONE', *, *, #139, .T. ) ;
#30 = VERTEX_POINT ( 'NONE', #228 ) ;
#31 = VECTOR ( 'NONE', #307, 1000.000000000000000 ) ;
#32 = LOCAL_TIME ( 11, 24, 37.00000000000000000, #259 ) ;
#33 = EDGE_CURVE ( 'NONE', #264, #111, #223, .T. ) ;
#34 = LINE ( 'NONE', #129, #130 ) ;
#35 = MANIFOLD_SOLID_BREP ( 'Zaoblit1', #170 ) ;
#36 = CALENDAR_DATE ( 2022, 20, 6 ) ;
#37 = DIRECTION ( 'NONE',  ( 0.000000000000000000, 0.000000000000000000, 1.000000000000000000 ) ) ;
#38 = PERSON_AND_ORGANIZATION ( #94, #98 ) ;
#39 = VERTEX_POINT ( 'NONE', #93 ) ;
#40 = AXIS2_PLACEMENT_3D ( 'NONE', #209, #51, #210 ) ;
#41 = DIRECTION ( 'NONE',  ( 0.000000000000000000, 0.000000000000000000, 1.000000000000000000 ) ) ;
#42 = DIRECTION ( 'NONE',  ( 1.000000000000000000, 0.000000000000000000, -0.000000000000000000 ) ) ;
#43 = CARTESIAN_POINT ( 'NONE',  ( 0.000000000000000000, 0.000000000000000000, 7.200000000000011724 ) ) ;
#44 = PRODUCT_DEFINITION ( 'NEZNÁMÝ', '', #85, #66 ) ;
#45 = LOCAL_TIME ( 11, 24, 37.00000000000000000, #263 ) ;
#46 = CARTESIAN_POINT ( 'NONE',  ( -8.000000000000000000, 0.000000000000000000, 167.0000000000000000 ) ) ;
#47 = FACE_OUTER_BOUND ( 'NONE', #150, .T. ) ;
#48 = PERSON_AND_ORGANIZATION_ROLE ( 'design_owner' ) ;
#49 = CIRCLE ( 'NONE', #115, 8.200000000000001066 ) ;
#50 = PRODUCT_DEFINITION_SHAPE ( 'NONE', 'NONE',  #44 ) ;
#51 = DIRECTION ( 'NONE',  ( 1.224646799147353207E-16, 1.000000000000000000, -0.000000000000000000 ) ) ;
#52 = EDGE_CURVE ( 'NONE', #2, #30, #8, .T. ) ;
#53 = DIRECTION ( 'NONE',  ( -0.000000000000000000, -0.000000000000000000, -1.000000000000000000 ) ) ;
#54 = CC_DESIGN_PERSON_AND_ORGANIZATION_ASSIGNMENT ( #279, #48, ( #287 ) ) ;
#55 = ADVANCED_FACE ( 'NONE', ( #17 ), #118, .T. ) ;
#56 = DATE_AND_TIME ( #173, #32 ) ;
#57 = ORIENTED_EDGE ( 'NONE', *, *, #69, .T. ) ;
#58 = ORIENTED_EDGE ( 'NONE', *, *, #20, .F. ) ;
#59 = AXIS2_PLACEMENT_3D ( 'NONE', #145, #256, #281 ) ;
#60 = EDGE_LOOP ( 'NONE', ( #266, #260 ) ) ;
#61 = DATE_AND_TIME ( #27, #301 ) ;
#62 = EDGE_LOOP ( 'NONE', ( #197, #262, #63, #199 ) ) ;
#63 = ORIENTED_EDGE ( 'NONE', *, *, #184, .F. ) ;
#64 = AXIS2_PLACEMENT_3D ( 'NONE', #92, #183, #114 ) ;
#65 = DIRECTION ( 'NONE',  ( -0.000000000000000000, -0.000000000000000000, -1.000000000000000000 ) ) ;
#66 = DESIGN_CONTEXT ( 'detailed design', #282, 'design' ) ;
#67 = FACE_OUTER_BOUND ( 'NONE', #214, .T. ) ;
#68 = DIRECTION ( 'NONE',  ( 1.000000000000000000, 0.000000000000000000, 0.000000000000000000 ) ) ;
#69 = EDGE_CURVE ( 'NONE', #219, #293, #22, .T. ) ;
#70 = DIRECTION ( 'NONE',  ( 1.000000000000000000, 0.000000000000000000, 0.000000000000000000 ) ) ;
#71 = APPROVAL ( #110, 'NEURÈENÝ' ) ;
#72 =( LENGTH_UNIT ( ) NAMED_UNIT ( * ) SI_UNIT ( .MILLI., .METRE. ) );
#73 = CC_DESIGN_APPROVAL ( #205, ( #95 ) ) ;
#74 = DIRECTION ( 'NONE',  ( 0.000000000000000000, 0.000000000000000000, 1.000000000000000000 ) ) ;
#75 = ADVANCED_FACE ( 'NONE', ( #47 ), #161, .F. ) ;
#76 = APPLICATION_PROTOCOL_DEFINITION ( 'international standard', 'config_control_design', 1994, #282 ) ;
#77 = EDGE_CURVE ( 'NONE', #293, #219, #298, .T. ) ;
#78 = ADVANCED_FACE ( 'NONE', ( #163 ), #229, .T. ) ;
#79 = PERSON_AND_ORGANIZATION ( #94, #98 ) ;
#80 = APPROVAL_ROLE ( '' ) ;
#81 = VERTEX_POINT ( 'NONE', #113 ) ;
#82 = PERSON_AND_ORGANIZATION_ROLE ( 'classification_officer' ) ;
#83 = VERTEX_POINT ( 'NONE', #19 ) ;
#84 = ORIENTED_EDGE ( 'NONE', *, *, #9, .T. ) ;
#85 = PRODUCT_DEFINITION_FORMATION_WITH_SPECIFIED_SOURCE ( 'LIBOVOLNÝ', '', #287, .NOT_KNOWN. ) ;
#86 = ADVANCED_FACE ( 'NONE', ( #119, #270 ), #202, .T. ) ;
#87 = ORIENTED_EDGE ( 'NONE', *, *, #184, .T. ) ;
#88 = ADVANCED_FACE ( 'NONE', ( #67 ), #193, .F. ) ;
#89 = CARTESIAN_POINT ( 'NONE',  ( -11.00000000000000000, 0.000000000000000000, 7.000000000000000000 ) ) ;
#90 = CIRCLE ( 'NONE', #40, 0.2000000000000005107 ) ;
#91 = DIRECTION ( 'NONE',  ( 0.000000000000000000, 0.000000000000000000, 1.000000000000000000 ) ) ;
#92 = CARTESIAN_POINT ( 'NONE',  ( 8.200000000000001066, 0.000000000000000000, 7.200000000000011724 ) ) ;
#93 = CARTESIAN_POINT ( 'NONE',  ( 8.200000000000001066, 0.000000000000000000, 7.000000000000006217 ) ) ;
#94 = PERSON ( 'NEURÈENÝ', 'NEURÈENÝ', 'NEURÈENÝ', ('NEURÈENÝ'), ('NEURÈENÝ'), ('NEURÈENÝ') ) ;
#95 = SECURITY_CLASSIFICATION ( '', '', #290 ) ;
#96 = DIRECTION ( 'NONE',  ( 1.000000000000000000, 0.000000000000000000, -0.000000000000000000 ) ) ;
#97 = DIRECTION ( 'NONE',  ( -1.000000000000000000, 0.000000000000000000, 0.000000000000000000 ) ) ;
#98 = ORGANIZATION ( 'NEURÈENÝ', 'NEURÈENÝ', '' ) ;
#99 = MECHANICAL_CONTEXT ( 'NONE', #275, 'mechanical' ) ;
#100 = CYLINDRICAL_SURFACE ( 'NONE', #252, 11.00000000000000000 ) ;
#101 = CARTESIAN_POINT ( 'NONE',  ( 0.000000000000000000, 0.000000000000000000, 7.200000000000011724 ) ) ;
#102 = PRODUCT_RELATED_PRODUCT_CATEGORY ( 'detail', '', ( #287 ) ) ;
#103 = PERSON_AND_ORGANIZATION_ROLE ( 'design_supplier' ) ;
#104 = CC_DESIGN_SECURITY_CLASSIFICATION ( #95, ( #85 ) ) ;
#105 = DATE_AND_TIME ( #36, #138 ) ;
#106 = SHAPE_DEFINITION_REPRESENTATION ( #50, #212 ) ;
#107 = ADVANCED_FACE ( 'NONE', ( #159 ), #11, .F. ) ;
#108 = ORIENTED_EDGE ( 'NONE', *, *, #155, .F. ) ;
#109 = ORIENTED_EDGE ( 'NONE', *, *, #20, .T. ) ;
#110 = APPROVAL_STATUS ( 'not_yet_approved' ) ;
#111 = VERTEX_POINT ( 'NONE', #89 ) ;
#112 = EDGE_CURVE ( 'NONE', #81, #39, #16, .T. ) ;
#113 = CARTESIAN_POINT ( 'NONE',  ( 8.000000000000000000, 9.797174393178825657E-16, 7.200000000000011724 ) ) ;
#114 = DIRECTION ( 'NONE',  ( 0.000000000000000000, 0.000000000000000000, -1.000000000000000000 ) ) ;
#115 = AXIS2_PLACEMENT_3D ( 'NONE', #21, #26, #253 ) ;
#116 = DIRECTION ( 'NONE',  ( 0.000000000000000000, 0.000000000000000000, 1.000000000000000000 ) ) ;
#117 = CC_DESIGN_PERSON_AND_ORGANIZATION_ASSIGNMENT ( #194, #234, ( #85 ) ) ;
#118 = CYLINDRICAL_SURFACE ( 'NONE', #160, 8.000000000000000000 ) ;
#119 = FACE_BOUND ( 'NONE', #239, .T. ) ;
#120 = DIRECTION ( 'NONE',  ( -0.000000000000000000, -0.000000000000000000, -1.000000000000000000 ) ) ;
#121 = EDGE_CURVE ( 'NONE', #81, #83, #231, .T. ) ;
#122 = FACE_OUTER_BOUND ( 'NONE', #196, .T. ) ;
#123 = FACE_OUTER_BOUND ( 'NONE', #291, .T. ) ;
#124 = APPROVAL_PERSON_ORGANIZATION ( #6, #71, #238 ) ;
#125 = CARTESIAN_POINT ( 'NONE',  ( -8.200000000000001066, 1.004210375300829674E-15, 7.000000000000006217 ) ) ;
#126 = AXIS2_PLACEMENT_3D ( 'NONE', #136, #91, #186 ) ;
#127 = ORIENTED_EDGE ( 'NONE', *, *, #240, .F. ) ;
#128 = CARTESIAN_POINT ( 'NONE',  ( 8.000000000000000000, 9.797174393178825657E-16, 167.0000000000000000 ) ) ;
#129 = CARTESIAN_POINT ( 'NONE',  ( 8.000000000000000000, 9.797174393178825657E-16, 167.0000000000000000 ) ) ;
#130 = VECTOR ( 'NONE', #152, 1000.000000000000000 ) ;
#131 = CALENDAR_DATE ( 2022, 20, 6 ) ;
#132 = DIRECTION ( 'NONE',  ( 1.000000000000000000, 0.000000000000000000, 0.000000000000000000 ) ) ;
#133 = APPROVAL_DATE_TIME ( #148, #71 ) ;
#134 = ORIENTED_EDGE ( 'NONE', *, *, #52, .F. ) ;
#135 = VECTOR ( 'NONE', #120, 1000.000000000000000 ) ;
#136 = CARTESIAN_POINT ( 'NONE',  ( 0.000000000000000000, 0.000000000000000000, 167.0000000000000000 ) ) ;
#137 = DIRECTION ( 'NONE',  ( -0.000000000000000000, -0.000000000000000000, -1.000000000000000000 ) ) ;
#138 = LOCAL_TIME ( 11, 24, 37.00000000000000000, #230 ) ;
#139 = EDGE_CURVE ( 'NONE', #216, #39, #143, .T. ) ;
#140 = DIRECTION ( 'NONE',  ( -1.000000000000000000, 0.000000000000000000, 0.000000000000000000 ) ) ;
#141 = CYLINDRICAL_SURFACE ( 'NONE', #249, 11.00000000000000000 ) ;
#142 = APPROVAL_STATUS ( 'not_yet_approved' ) ;
#143 = CIRCLE ( 'NONE', #198, 8.200000000000001066 ) ;
#144 = LINE ( 'NONE', #146, #31 ) ;
#145 = CARTESIAN_POINT ( 'NONE',  ( 0.000000000000000000, 0.000000000000000000, 167.0000000000000000 ) ) ;
#146 = CARTESIAN_POINT ( 'NONE',  ( -11.00000000000000000, 0.000000000000000000, 7.000000000000000000 ) ) ;
#147 = CARTESIAN_POINT ( 'NONE',  ( -11.00000000000000000, 0.000000000000000000, 0.000000000000000000 ) ) ;
#148 = DATE_AND_TIME ( #179, #289 ) ;
#149 = COORDINATED_UNIVERSAL_TIME_OFFSET ( 1, 0, .AHEAD. ) ;
#150 = EDGE_LOOP ( 'NONE', ( #178, #258 ) ) ;
#151 = ORIENTED_EDGE ( 'NONE', *, *, #240, .T. ) ;
#152 = DIRECTION ( 'NONE',  ( -0.000000000000000000, -0.000000000000000000, -1.000000000000000000 ) ) ;
#153 = APPROVAL_STATUS ( 'not_yet_approved' ) ;
#154 = ORIENTED_EDGE ( 'NONE', *, *, #191, .T. ) ;
#155 = EDGE_CURVE ( 'NONE', #30, #83, #226, .T. ) ;
#156 = DIRECTION ( 'NONE',  ( 1.000000000000000000, 0.000000000000000000, -0.000000000000000000 ) ) ;
#157 = AXIS2_PLACEMENT_3D ( 'NONE', #297, #15, #295 ) ;
#158 = CARTESIAN_POINT ( 'NONE',  ( 0.000000000000000000, 0.000000000000000000, 167.0000000000000000 ) ) ;
#159 = FACE_OUTER_BOUND ( 'NONE', #62, .T. ) ;
#160 = AXIS2_PLACEMENT_3D ( 'NONE', #14, #65, #206 ) ;
#161 = PLANE ( 'NONE',  #187 ) ;
#162 = CC_DESIGN_APPROVAL ( #71, ( #85 ) ) ;
#163 = FACE_OUTER_BOUND ( 'NONE', #60, .T. ) ;
#164 = AXIS2_PLACEMENT_3D ( 'NONE', #241, #37, #132 ) ;
#165 = APPROVAL ( #142, 'NEURÈENÝ' ) ;
#166 = CYLINDRICAL_SURFACE ( 'NONE', #203, 8.000000000000000000 ) ;
#167 = AXIS2_PLACEMENT_3D ( 'NONE', #43, #204, #296 ) ;
#168 =( NAMED_UNIT ( * ) PLANE_ANGLE_UNIT ( ) SI_UNIT ( $, .RADIAN. ) );
#169 = PERSON_AND_ORGANIZATION ( #94, #98 ) ;
#170 = CLOSED_SHELL ( 'NONE', ( #107, #227, #24, #255, #86, #75, #55, #78, #88 ) ) ;
#171 = CARTESIAN_POINT ( 'NONE',  ( 0.000000000000000000, 0.000000000000000000, 7.000000000000000000 ) ) ;
#172 = VECTOR ( 'NONE', #190, 1000.000000000000000 ) ;
#173 = CALENDAR_DATE ( 2022, 20, 6 ) ;
#174 = EDGE_CURVE ( 'NONE', #83, #216, #90, .T. ) ;
#175 = ORIENTED_EDGE ( 'NONE', *, *, #139, .F. ) ;
#176 = ORIENTED_EDGE ( 'NONE', *, *, #112, .T. ) ;
#177 = DATE_TIME_ROLE ( 'classification_date' ) ;
#178 = ORIENTED_EDGE ( 'NONE', *, *, #77, .F. ) ;
#179 = CALENDAR_DATE ( 2022, 20, 6 ) ;
#180 = ORIENTED_EDGE ( 'NONE', *, *, #174, .F. ) ;
#181 = EDGE_LOOP ( 'NONE', ( #237, #217, #57, #127 ) ) ;
#182 = CIRCLE ( 'NONE', #59, 8.000000000000000000 ) ;
#183 = DIRECTION ( 'NONE',  ( 0.000000000000000000, -1.000000000000000000, 0.000000000000000000 ) ) ;
#184 = EDGE_CURVE ( 'NONE', #39, #216, #49, .T. ) ;
#185 = CARTESIAN_POINT ( 'NONE',  ( 0.000000000000000000, 0.000000000000000000, 7.000000000000000000 ) ) ;
#186 = DIRECTION ( 'NONE',  ( 1.000000000000000000, 0.000000000000000000, 0.000000000000000000 ) ) ;
#187 = AXIS2_PLACEMENT_3D ( 'NONE', #244, #273, #96 ) ;
#188 = DIRECTION ( 'NONE',  ( 1.000000000000000000, 0.000000000000000000, 0.000000000000000000 ) ) ;
#189 = CARTESIAN_POINT ( 'NONE',  ( 0.000000000000000000, 0.000000000000000000, 7.000000000000000000 ) ) ;
#190 = DIRECTION ( 'NONE',  ( -0.000000000000000000, -0.000000000000000000, -1.000000000000000000 ) ) ;
#191 = EDGE_CURVE ( 'NONE', #83, #81, #3, .T. ) ;
#192 = DIRECTION ( 'NONE',  ( -1.000000000000000000, 0.000000000000000000, 0.000000000000000000 ) ) ;
#193 = TOROIDAL_SURFACE ( 'NONE', #272, 8.200000000000001066, 0.2000000000000000111 ) ;
#194 = PERSON_AND_ORGANIZATION ( #94, #98 ) ;
#195 = ORIENTED_EDGE ( 'NONE', *, *, #265, .F. ) ;
#196 = EDGE_LOOP ( 'NONE', ( #134, #84, #288, #108 ) ) ;
#197 = ORIENTED_EDGE ( 'NONE', *, *, #191, .F. ) ;
#198 = AXIS2_PLACEMENT_3D ( 'NONE', #185, #137, #68 ) ;
#199 = ORIENTED_EDGE ( 'NONE', *, *, #112, .F. ) ;
#200 = EDGE_LOOP ( 'NONE', ( #109, #221 ) ) ;
#201 = AXIS2_PLACEMENT_3D ( 'NONE', #274, #116, #156 ) ;
#202 = PLANE ( 'NONE',  #201 ) ;
#203 = AXIS2_PLACEMENT_3D ( 'NONE', #23, #276, #97 ) ;
#204 = DIRECTION ( 'NONE',  ( 0.000000000000000000, 0.000000000000000000, 1.000000000000000000 ) ) ;
#205 = APPROVAL ( #153, 'NEURÈENÝ' ) ;
#206 = DIRECTION ( 'NONE',  ( -1.000000000000000000, 0.000000000000000000, 0.000000000000000000 ) ) ;
#207 = CARTESIAN_POINT ( 'NONE',  ( 0.000000000000000000, 0.000000000000000000, 7.000000000000000000 ) ) ;
#208 = DIRECTION ( 'NONE',  ( 0.000000000000000000, 0.000000000000000000, 1.000000000000000000 ) ) ;
#209 = CARTESIAN_POINT ( 'NONE',  ( -8.200000000000001066, 1.004210375300829674E-15, 7.200000000000011724 ) ) ;
#210 = DIRECTION ( 'NONE',  ( -1.000000000000000000, 1.224646799147353207E-16, 0.000000000000000000 ) ) ;
#211 = DIRECTION ( 'NONE',  ( 1.000000000000000000, 0.000000000000000000, 0.000000000000000000 ) ) ;
#212 = ADVANCED_BREP_SHAPE_REPRESENTATION ( 'eb34', ( #35, #225 ), #278 ) ;
#213 = CARTESIAN_POINT ( 'NONE',  ( 11.00000000000000000, 1.347111479062088405E-15, 7.000000000000000000 ) ) ;
#214 = EDGE_LOOP ( 'NONE', ( #180, #10, #176, #175 ) ) ;
#215 = APPROVAL_DATE_TIME ( #105, #165 ) ;
#216 = VERTEX_POINT ( 'NONE', #125 ) ;
#217 = ORIENTED_EDGE ( 'NONE', *, *, #280, .T. ) ;
#218 = APPROVAL_DATE_TIME ( #56, #205 ) ;
#219 = VERTEX_POINT ( 'NONE', #305 ) ;
#220 = PERSON_AND_ORGANIZATION_ROLE ( 'creator' ) ;
#221 = ORIENTED_EDGE ( 'NONE', *, *, #33, .T. ) ;
#222 = DIRECTION ( 'NONE',  ( 1.000000000000000000, 0.000000000000000000, 0.000000000000000000 ) ) ;
#223 = CIRCLE ( 'NONE', #232, 11.00000000000000000 ) ;
#224 = DIRECTION ( 'NONE',  ( 0.000000000000000000, 0.000000000000000000, 1.000000000000000000 ) ) ;
#225 = AXIS2_PLACEMENT_3D ( 'NONE', #233, #74, #250 ) ;
#226 = LINE ( 'NONE', #46, #135 ) ;
#227 = ADVANCED_FACE ( 'NONE', ( #122 ), #166, .T. ) ;
#228 = CARTESIAN_POINT ( 'NONE',  ( -8.000000000000000000, 0.000000000000000000, 167.0000000000000000 ) ) ;
#229 = PLANE ( 'NONE',  #28 ) ;
#230 = COORDINATED_UNIVERSAL_TIME_OFFSET ( 1, 0, .AHEAD. ) ;
#231 = CIRCLE ( 'NONE', #167, 8.000000000000000000 ) ;
#232 = AXIS2_PLACEMENT_3D ( 'NONE', #207, #269, #300 ) ;
#233 = CARTESIAN_POINT ( 'NONE',  ( 0.000000000000000000, 0.000000000000000000, 0.000000000000000000 ) ) ;
#234 = PERSON_AND_ORGANIZATION_ROLE ( 'creator' ) ;
#235 = CC_DESIGN_PERSON_AND_ORGANIZATION_ASSIGNMENT ( #38, #103, ( #85 ) ) ;
#236 = ORIENTED_EDGE ( 'NONE', *, *, #155, .T. ) ;
#237 = ORIENTED_EDGE ( 'NONE', *, *, #33, .F. ) ;
#238 = APPROVAL_ROLE ( '' ) ;
#239 = EDGE_LOOP ( 'NONE', ( #87, #29 ) ) ;
#240 = EDGE_CURVE ( 'NONE', #111, #293, #144, .T. ) ;
#241 = CARTESIAN_POINT ( 'NONE',  ( 0.000000000000000000, 0.000000000000000000, 7.000000000000000000 ) ) ;
#242 = APPROVAL_PERSON_ORGANIZATION ( #79, #205, #80 ) ;
#243 = CARTESIAN_POINT ( 'NONE',  ( 0.000000000000000000, 0.000000000000000000, 7.200000000000011724 ) ) ;
#244 = CARTESIAN_POINT ( 'NONE',  ( 0.000000000000000000, 0.000000000000000000, 0.000000000000000000 ) ) ;
#245 = FACE_OUTER_BOUND ( 'NONE', #181, .T. ) ;
#246 = DIRECTION ( 'NONE',  ( 0.000000000000000000, 0.000000000000000000, 1.000000000000000000 ) ) ;
#247 = CC_DESIGN_DATE_AND_TIME_ASSIGNMENT ( #12, #4, ( #44 ) ) ;
#248 = CARTESIAN_POINT ( 'NONE',  ( 0.000000000000000000, 0.000000000000000000, 0.000000000000000000 ) ) ;
#249 = AXIS2_PLACEMENT_3D ( 'NONE', #189, #18, #140 ) ;
#250 = DIRECTION ( 'NONE',  ( 1.000000000000000000, 0.000000000000000000, 0.000000000000000000 ) ) ;
#251 =( NAMED_UNIT ( * ) SI_UNIT ( $, .STERADIAN. ) SOLID_ANGLE_UNIT ( ) );
#252 = AXIS2_PLACEMENT_3D ( 'NONE', #171, #53, #192 ) ;
#253 = DIRECTION ( 'NONE',  ( 1.000000000000000000, 0.000000000000000000, 0.000000000000000000 ) ) ;
#254 = AXIS2_PLACEMENT_3D ( 'NONE', #248, #299, #188 ) ;
#255 = ADVANCED_FACE ( 'NONE', ( #123 ), #100, .T. ) ;
#256 = DIRECTION ( 'NONE',  ( 0.000000000000000000, 0.000000000000000000, 1.000000000000000000 ) ) ;
#257 = AXIS2_PLACEMENT_3D ( 'NONE', #101, #208, #211 ) ;
#258 = ORIENTED_EDGE ( 'NONE', *, *, #69, .F. ) ;
#259 = COORDINATED_UNIVERSAL_TIME_OFFSET ( 1, 0, .AHEAD. ) ;
#260 = ORIENTED_EDGE ( 'NONE', *, *, #52, .T. ) ;
#261 = APPROVAL_PERSON_ORGANIZATION ( #169, #165, #25 ) ;
#262 = ORIENTED_EDGE ( 'NONE', *, *, #174, .T. ) ;
#263 = COORDINATED_UNIVERSAL_TIME_OFFSET ( 1, 0, .AHEAD. ) ;
#264 = VERTEX_POINT ( 'NONE', #213 ) ;
#265 = EDGE_CURVE ( 'NONE', #30, #2, #182, .T. ) ;
#266 = ORIENTED_EDGE ( 'NONE', *, *, #265, .T. ) ;
#267 = CC_DESIGN_DATE_AND_TIME_ASSIGNMENT ( #61, #177, ( #95 ) ) ;
#268 = CARTESIAN_POINT ( 'NONE',  ( 0.000000000000000000, 0.000000000000000000, 0.000000000000000000 ) ) ;
#269 = DIRECTION ( 'NONE',  ( 0.000000000000000000, 0.000000000000000000, 1.000000000000000000 ) ) ;
#270 = FACE_OUTER_BOUND ( 'NONE', #200, .T. ) ;
#271 = CC_DESIGN_PERSON_AND_ORGANIZATION_ASSIGNMENT ( #1, #220, ( #44 ) ) ;
#272 = AXIS2_PLACEMENT_3D ( 'NONE', #243, #41, #222 ) ;
#273 = DIRECTION ( 'NONE',  ( 0.000000000000000000, 0.000000000000000000, 1.000000000000000000 ) ) ;
#274 = CARTESIAN_POINT ( 'NONE',  ( 0.000000000000000000, 0.000000000000000000, 7.000000000000000000 ) ) ;
#275 = APPLICATION_CONTEXT ( 'configuration controlled 3d designs of mechanical parts and assemblies' ) ;
#276 = DIRECTION ( 'NONE',  ( -0.000000000000000000, -0.000000000000000000, -1.000000000000000000 ) ) ;
#277 = APPLICATION_PROTOCOL_DEFINITION ( 'international standard', 'config_control_design', 1994, #275 ) ;
#278 =( GEOMETRIC_REPRESENTATION_CONTEXT ( 3 ) GLOBAL_UNCERTAINTY_ASSIGNED_CONTEXT ( ( #292 ) ) GLOBAL_UNIT_ASSIGNED_CONTEXT ( ( #72, #168, #251 ) ) REPRESENTATION_CONTEXT ( 'NONE', 'WORKASPACE' ) );
#279 = PERSON_AND_ORGANIZATION ( #94, #98 ) ;
#280 = EDGE_CURVE ( 'NONE', #264, #219, #303, .T. ) ;
#281 = DIRECTION ( 'NONE',  ( 1.000000000000000000, 0.000000000000000000, 0.000000000000000000 ) ) ;
#282 = APPLICATION_CONTEXT ( 'configuration controlled 3d designs of mechanical parts and assemblies' ) ;
#283 = PERSON_AND_ORGANIZATION ( #94, #98 ) ;
#284 = COORDINATED_UNIVERSAL_TIME_OFFSET ( 1, 0, .AHEAD. ) ;
#285 = EDGE_LOOP ( 'NONE', ( #7, #195, #236, #154 ) ) ;
#286 = CIRCLE ( 'NONE', #164, 11.00000000000000000 ) ;
#287 = PRODUCT ( 'eb34', 'eb34', '', ( #99 ) ) ;
#288 = ORIENTED_EDGE ( 'NONE', *, *, #121, .T. ) ;
#289 = LOCAL_TIME ( 11, 24, 37.00000000000000000, #149 ) ;
#290 = SECURITY_CLASSIFICATION_LEVEL ( 'unclassified' ) ;
#291 = EDGE_LOOP ( 'NONE', ( #13, #58, #151, #5 ) ) ;
#292 = UNCERTAINTY_MEASURE_WITH_UNIT (LENGTH_MEASURE( 1.000000000000000082E-05 ), #72, 'distance_accuracy_value', 'NONE');
#293 = VERTEX_POINT ( 'NONE', #147 ) ;
#294 = AXIS2_PLACEMENT_3D ( 'NONE', #268, #246, #70 ) ;
#295 = DIRECTION ( 'NONE',  ( 1.000000000000000000, 0.000000000000000000, 0.000000000000000000 ) ) ;
#296 = DIRECTION ( 'NONE',  ( 1.000000000000000000, 0.000000000000000000, 0.000000000000000000 ) ) ;
#297 = CARTESIAN_POINT ( 'NONE',  ( 0.000000000000000000, 0.000000000000000000, 7.200000000000011724 ) ) ;
#298 = CIRCLE ( 'NONE', #294, 11.00000000000000000 ) ;
#299 = DIRECTION ( 'NONE',  ( 0.000000000000000000, 0.000000000000000000, 1.000000000000000000 ) ) ;
#300 = DIRECTION ( 'NONE',  ( 1.000000000000000000, 0.000000000000000000, 0.000000000000000000 ) ) ;
#301 = LOCAL_TIME ( 11, 24, 37.00000000000000000, #284 ) ;
#302 = CARTESIAN_POINT ( 'NONE',  ( 11.00000000000000000, 1.347111479062088405E-15, 7.000000000000000000 ) ) ;
#303 = LINE ( 'NONE', #302, #172 ) ;
#304 = CC_DESIGN_APPROVAL ( #165, ( #44 ) ) ;
#305 = CARTESIAN_POINT ( 'NONE',  ( 11.00000000000000000, 1.347111479062088405E-15, 0.000000000000000000 ) ) ;
#306 = CC_DESIGN_PERSON_AND_ORGANIZATION_ASSIGNMENT ( #283, #82, ( #95 ) ) ;
#307 = DIRECTION ( 'NONE',  ( -0.000000000000000000, -0.000000000000000000, -1.000000000000000000 ) ) ;
ENDSEC;
END-ISO-10303-21;
