ISO-10303-21;
HEADER;
FILE_DESCRIPTION (( 'STEP AP203' ),
    '1' );
FILE_NAME ('1cc9.STEP',
    '2022-06-20T09:20:34',
    ( '' ),
    ( '' ),
    'SwSTEP 2.0',
    'SolidWorks 2019',
    '' );
FILE_SCHEMA (( 'CONFIG_CONTROL_DESIGN' ));
ENDSEC;

DATA;
#1 = CARTESIAN_POINT ( 'NONE',  ( 0.000000000000000000, 0.000000000000000000, 8.000000000000000000 ) ) ;
#2 = AXIS2_PLACEMENT_3D ( 'NONE', #23, #186, #49 ) ;
#3 = EDGE_CURVE ( 'NONE', #136, #298, #197, .T. ) ;
#4 = TOROIDAL_SURFACE ( 'NONE', #255, 10.20000000000000107, 0.2000000000000000111 ) ;
#5 = DIRECTION ( 'NONE',  ( -0.000000000000000000, -0.000000000000000000, -1.000000000000000000 ) ) ;
#6 = APPROVAL ( #214, 'NEURÈENÝ' ) ;
#7 = AXIS2_PLACEMENT_3D ( 'NONE', #268, #66, #93 ) ;
#8 = DIRECTION ( 'NONE',  ( 0.000000000000000000, 0.000000000000000000, 1.000000000000000000 ) ) ;
#9 = DATE_AND_TIME ( #248, #106 ) ;
#10 = CARTESIAN_POINT ( 'NONE',  ( -10.00000000000000000, 0.000000000000000000, 168.0000000000000000 ) ) ;
#11 = CALENDAR_DATE ( 2022, 20, 6 ) ;
#12 = COORDINATED_UNIVERSAL_TIME_OFFSET ( 1, 0, .AHEAD. ) ;
#13 = APPROVAL_STATUS ( 'not_yet_approved' ) ;
#14 = UNCERTAINTY_MEASURE_WITH_UNIT (LENGTH_MEASURE( 1.000000000000000082E-05 ), #55, 'distance_accuracy_value', 'NONE');
#15 = CC_DESIGN_PERSON_AND_ORGANIZATION_ASSIGNMENT ( #133, #151, ( #98 ) ) ;
#16 = CALENDAR_DATE ( 2022, 20, 6 ) ;
#17 = LINE ( 'NONE', #212, #87 ) ;
#18 = FACE_OUTER_BOUND ( 'NONE', #21, .T. ) ;
#19 = ORIENTED_EDGE ( 'NONE', *, *, #279, .F. ) ;
#20 = DIRECTION ( 'NONE',  ( -0.000000000000000000, -0.000000000000000000, -1.000000000000000000 ) ) ;
#21 = EDGE_LOOP ( 'NONE', ( #234, #205, #224, #187 ) ) ;
#22 = DESIGN_CONTEXT ( 'detailed design', #105, 'design' ) ;
#23 = CARTESIAN_POINT ( 'NONE',  ( 0.000000000000000000, 0.000000000000000000, 168.0000000000000000 ) ) ;
#24 = ORIENTED_EDGE ( 'NONE', *, *, #3, .T. ) ;
#25 = PERSON ( 'NEURÈENÝ', 'NEURÈENÝ', 'NEURÈENÝ', ('NEURÈENÝ'), ('NEURÈENÝ'), ('NEURÈENÝ') ) ;
#26 = APPLICATION_PROTOCOL_DEFINITION ( 'international standard', 'config_control_design', 1994, #219 ) ;
#27 = CIRCLE ( 'NONE', #233, 10.20000000000000107 ) ;
#28 = AXIS2_PLACEMENT_3D ( 'NONE', #53, #235, #258 ) ;
#29 = CC_DESIGN_PERSON_AND_ORGANIZATION_ASSIGNMENT ( #182, #39, ( #45 ) ) ;
#30 = CARTESIAN_POINT ( 'NONE',  ( 0.000000000000000000, 0.000000000000000000, 8.200000000000013500 ) ) ;
#31 = FACE_OUTER_BOUND ( 'NONE', #153, .T. ) ;
#32 = PERSON_AND_ORGANIZATION ( #25, #207 ) ;
#33 = ADVANCED_FACE ( 'NONE', ( #18 ), #213, .T. ) ;
#34 = ORIENTED_EDGE ( 'NONE', *, *, #146, .T. ) ;
#35 = CALENDAR_DATE ( 2022, 20, 6 ) ;
#36 = DIRECTION ( 'NONE',  ( 0.000000000000000000, 0.000000000000000000, 1.000000000000000000 ) ) ;
#37 = CC_DESIGN_PERSON_AND_ORGANIZATION_ASSIGNMENT ( #293, #211, ( #45 ) ) ;
#38 = ORIENTED_EDGE ( 'NONE', *, *, #63, .T. ) ;
#39 = PERSON_AND_ORGANIZATION_ROLE ( 'creator' ) ;
#40 = CARTESIAN_POINT ( 'NONE',  ( 13.00000000000000178, 1.592040838891559293E-15, 8.000000000000000000 ) ) ;
#41 = ORIENTED_EDGE ( 'NONE', *, *, #184, .F. ) ;
#42 = PERSON_AND_ORGANIZATION ( #25, #207 ) ;
#43 = PLANE ( 'NONE',  #144 ) ;
#44 = DIRECTION ( 'NONE',  ( -0.000000000000000000, -0.000000000000000000, -1.000000000000000000 ) ) ;
#45 = PRODUCT_DEFINITION_FORMATION_WITH_SPECIFIED_SOURCE ( 'LIBOVOLNÝ', '', #174, .NOT_KNOWN. ) ;
#46 = ADVANCED_FACE ( 'NONE', ( #242, #97 ), #134, .T. ) ;
#47 = DIRECTION ( 'NONE',  ( 1.000000000000000000, 0.000000000000000000, 0.000000000000000000 ) ) ;
#48 = EDGE_LOOP ( 'NONE', ( #295, #24, #286, #303 ) ) ;
#49 = DIRECTION ( 'NONE',  ( 1.000000000000000000, 0.000000000000000000, 0.000000000000000000 ) ) ;
#50 = DIRECTION ( 'NONE',  ( -0.000000000000000000, -0.000000000000000000, -1.000000000000000000 ) ) ;
#51 = ADVANCED_FACE ( 'NONE', ( #116 ), #218, .T. ) ;
#52 = PRODUCT_RELATED_PRODUCT_CATEGORY ( 'detail', '', ( #174 ) ) ;
#53 = CARTESIAN_POINT ( 'NONE',  ( 0.000000000000000000, 0.000000000000000000, 0.000000000000000000 ) ) ;
#54 = CC_DESIGN_PERSON_AND_ORGANIZATION_ASSIGNMENT ( #42, #228, ( #174 ) ) ;
#55 =( LENGTH_UNIT ( ) NAMED_UNIT ( * ) SI_UNIT ( .MILLI., .METRE. ) );
#56 =( NAMED_UNIT ( * ) SI_UNIT ( $, .STERADIAN. ) SOLID_ANGLE_UNIT ( ) );
#57 = DIRECTION ( 'NONE',  ( 0.000000000000000000, -1.000000000000000000, 0.000000000000000000 ) ) ;
#58 = SECURITY_CLASSIFICATION_LEVEL ( 'unclassified' ) ;
#59 = PLANE ( 'NONE',  #171 ) ;
#60 = ORIENTED_EDGE ( 'NONE', *, *, #247, .F. ) ;
#61 = PERSON_AND_ORGANIZATION ( #25, #207 ) ;
#62 = CYLINDRICAL_SURFACE ( 'NONE', #307, 10.00000000000000000 ) ;
#63 = EDGE_CURVE ( 'NONE', #298, #131, #27, .T. ) ;
#64 = DIRECTION ( 'NONE',  ( 1.000000000000000000, 0.000000000000000000, 0.000000000000000000 ) ) ;
#65 = CIRCLE ( 'NONE', #198, 13.00000000000000178 ) ;
#66 = DIRECTION ( 'NONE',  ( 0.000000000000000000, 0.000000000000000000, 1.000000000000000000 ) ) ;
#67 = EDGE_LOOP ( 'NONE', ( #156, #221, #189, #143 ) ) ;
#68 = MECHANICAL_CONTEXT ( 'NONE', #219, 'mechanical' ) ;
#69 = DIRECTION ( 'NONE',  ( -0.000000000000000000, -0.000000000000000000, -1.000000000000000000 ) ) ;
#70 = CARTESIAN_POINT ( 'NONE',  ( 0.000000000000000000, 0.000000000000000000, 8.000000000000000000 ) ) ;
#71 = ORIENTED_EDGE ( 'NONE', *, *, #210, .F. ) ;
#72 = CARTESIAN_POINT ( 'NONE',  ( 0.000000000000000000, 0.000000000000000000, 8.000000000000000000 ) ) ;
#73 = ORIENTED_EDGE ( 'NONE', *, *, #122, .T. ) ;
#74 = ORIENTED_EDGE ( 'NONE', *, *, #103, .T. ) ;
#75 = APPROVAL ( #13, 'NEURÈENÝ' ) ;
#76 = AXIS2_PLACEMENT_3D ( 'NONE', #88, #20, #119 ) ;
#77 = TOROIDAL_SURFACE ( 'NONE', #83, 10.20000000000000107, 0.2000000000000000111 ) ;
#78 = CARTESIAN_POINT ( 'NONE',  ( -13.00000000000000178, 0.000000000000000000, 8.000000000000000000 ) ) ;
#79 = AXIS2_PLACEMENT_3D ( 'NONE', #1, #5, #227 ) ;
#80 = ORIENTED_EDGE ( 'NONE', *, *, #247, .T. ) ;
#81 = EDGE_CURVE ( 'NONE', #131, #298, #125, .T. ) ;
#82 = APPROVAL_ROLE ( '' ) ;
#83 = AXIS2_PLACEMENT_3D ( 'NONE', #272, #220, #120 ) ;
#84 = EDGE_LOOP ( 'NONE', ( #71, #34, #261, #110 ) ) ;
#85 = ADVANCED_FACE ( 'NONE', ( #31 ), #59, .F. ) ;
#86 = CARTESIAN_POINT ( 'NONE',  ( 10.00000000000000000, 1.224646799147353256E-15, 168.0000000000000000 ) ) ;
#87 = VECTOR ( 'NONE', #69, 1000.000000000000000 ) ;
#88 = CARTESIAN_POINT ( 'NONE',  ( 0.000000000000000000, 0.000000000000000000, 168.0000000000000000 ) ) ;
#89 = CARTESIAN_POINT ( 'NONE',  ( 0.000000000000000000, 0.000000000000000000, 8.000000000000000000 ) ) ;
#90 = APPROVAL_STATUS ( 'not_yet_approved' ) ;
#91 = DIRECTION ( 'NONE',  ( 0.000000000000000000, 0.000000000000000000, 1.000000000000000000 ) ) ;
#92 = DIRECTION ( 'NONE',  ( -0.000000000000000000, -0.000000000000000000, -1.000000000000000000 ) ) ;
#93 = DIRECTION ( 'NONE',  ( 1.000000000000000000, 0.000000000000000000, 0.000000000000000000 ) ) ;
#94 = ADVANCED_FACE ( 'NONE', ( #148 ), #62, .T. ) ;
#95 = ORIENTED_EDGE ( 'NONE', *, *, #243, .T. ) ;
#96 = DIRECTION ( 'NONE',  ( 1.000000000000000000, 0.000000000000000000, 0.000000000000000000 ) ) ;
#97 = FACE_OUTER_BOUND ( 'NONE', #260, .T. ) ;
#98 = SECURITY_CLASSIFICATION ( '', '', #58 ) ;
#99 = VERTEX_POINT ( 'NONE', #10 ) ;
#100 = ADVANCED_FACE ( 'NONE', ( #204 ), #4, .F. ) ;
#101 = AXIS2_PLACEMENT_3D ( 'NONE', #249, #57, #130 ) ;
#102 = AXIS2_PLACEMENT_3D ( 'NONE', #127, #8, #244 ) ;
#103 = EDGE_CURVE ( 'NONE', #276, #131, #294, .T. ) ;
#104 = AXIS2_PLACEMENT_3D ( 'NONE', #302, #92, #280 ) ;
#105 = APPLICATION_CONTEXT ( 'configuration controlled 3d designs of mechanical parts and assemblies' ) ;
#106 = LOCAL_TIME ( 11, 20, 34.00000000000000000, #202 ) ;
#107 = DATE_TIME_ROLE ( 'creation_date' ) ;
#108 = APPROVAL_DATE_TIME ( #154, #170 ) ;
#109 = CIRCLE ( 'NONE', #283, 13.00000000000000178 ) ;
#110 = ORIENTED_EDGE ( 'NONE', *, *, #193, .F. ) ;
#111 = APPROVAL_ROLE ( '' ) ;
#112 = DIRECTION ( 'NONE',  ( -0.000000000000000000, -0.000000000000000000, -1.000000000000000000 ) ) ;
#113 = CARTESIAN_POINT ( 'NONE',  ( 0.000000000000000000, 0.000000000000000000, 8.000000000000000000 ) ) ;
#114 = DATE_AND_TIME ( #16, #115 ) ;
#115 = LOCAL_TIME ( 11, 20, 34.00000000000000000, #253 ) ;
#116 = FACE_OUTER_BOUND ( 'NONE', #67, .T. ) ;
#117 = CARTESIAN_POINT ( 'NONE',  ( -10.00000000000000000, 0.000000000000000000, 8.200000000000013500 ) ) ;
#118 = ORIENTED_EDGE ( 'NONE', *, *, #3, .F. ) ;
#119 = DIRECTION ( 'NONE',  ( -1.000000000000000000, 0.000000000000000000, 0.000000000000000000 ) ) ;
#120 = DIRECTION ( 'NONE',  ( 1.000000000000000000, 0.000000000000000000, 0.000000000000000000 ) ) ;
#121 = EDGE_CURVE ( 'NONE', #285, #195, #288, .T. ) ;
#122 = EDGE_CURVE ( 'NONE', #285, #196, #123, .T. ) ;
#123 = CIRCLE ( 'NONE', #7, 13.00000000000000178 ) ;
#124 = APPROVAL_PERSON_ORGANIZATION ( #32, #75, #111 ) ;
#125 = CIRCLE ( 'NONE', #79, 10.20000000000000107 ) ;
#126 = DIRECTION ( 'NONE',  ( 1.000000000000000000, 0.000000000000000000, 0.000000000000000000 ) ) ;
#127 = CARTESIAN_POINT ( 'NONE',  ( 0.000000000000000000, 0.000000000000000000, 0.000000000000000000 ) ) ;
#128 = DIRECTION ( 'NONE',  ( 0.000000000000000000, 0.000000000000000000, 1.000000000000000000 ) ) ;
#129 = DATE_TIME_ROLE ( 'classification_date' ) ;
#130 = DIRECTION ( 'NONE',  ( 0.000000000000000000, 0.000000000000000000, -1.000000000000000000 ) ) ;
#131 = VERTEX_POINT ( 'NONE', #217 ) ;
#132 = MANIFOLD_SOLID_BREP ( 'Zaoblit1', #241 ) ;
#133 = PERSON_AND_ORGANIZATION ( #25, #207 ) ;
#134 = PLANE ( 'NONE',  #245 ) ;
#135 = FACE_OUTER_BOUND ( 'NONE', #141, .T. ) ;
#136 = VERTEX_POINT ( 'NONE', #117 ) ;
#137 = VECTOR ( 'NONE', #304, 1000.000000000000000 ) ;
#138 = CARTESIAN_POINT ( 'NONE',  ( 0.000000000000000000, 0.000000000000000000, 8.200000000000013500 ) ) ;
#139 = DIRECTION ( 'NONE',  ( 1.000000000000000000, 0.000000000000000000, 0.000000000000000000 ) ) ;
#140 = CARTESIAN_POINT ( 'NONE',  ( 0.000000000000000000, 0.000000000000000000, 168.0000000000000000 ) ) ;
#141 = EDGE_LOOP ( 'NONE', ( #80, #240 ) ) ;
#142 = DIRECTION ( 'NONE',  ( 0.000000000000000000, 0.000000000000000000, 1.000000000000000000 ) ) ;
#143 = ORIENTED_EDGE ( 'NONE', *, *, #121, .F. ) ;
#144 = AXIS2_PLACEMENT_3D ( 'NONE', #301, #142, #162 ) ;
#145 = CIRCLE ( 'NONE', #237, 10.00000000000000000 ) ;
#146 = EDGE_CURVE ( 'NONE', #165, #276, #259, .T. ) ;
#147 = EDGE_CURVE ( 'NONE', #196, #285, #109, .T. ) ;
#148 = FACE_OUTER_BOUND ( 'NONE', #282, .T. ) ;
#149 = CC_DESIGN_APPROVAL ( #75, ( #45 ) ) ;
#150 = ADVANCED_FACE ( 'NONE', ( #135 ), #43, .T. ) ;
#151 = PERSON_AND_ORGANIZATION_ROLE ( 'classification_officer' ) ;
#152 = DIRECTION ( 'NONE',  ( -1.000000000000000000, 0.000000000000000000, 0.000000000000000000 ) ) ;
#153 = EDGE_LOOP ( 'NONE', ( #19, #250 ) ) ;
#154 = DATE_AND_TIME ( #35, #274 ) ;
#155 = DIRECTION ( 'NONE',  ( 0.000000000000000000, 0.000000000000000000, 1.000000000000000000 ) ) ;
#156 = ORIENTED_EDGE ( 'NONE', *, *, #147, .F. ) ;
#157 = DATE_AND_TIME ( #208, #230 ) ;
#158 = APPROVAL_PERSON_ORGANIZATION ( #277, #170, #209 ) ;
#159 = CARTESIAN_POINT ( 'NONE',  ( 10.00000000000000000, 1.224646799147353256E-15, 8.200000000000013500 ) ) ;
#160 = FACE_OUTER_BOUND ( 'NONE', #180, .T. ) ;
#161 = DIRECTION ( 'NONE',  ( 0.000000000000000000, 0.000000000000000000, 1.000000000000000000 ) ) ;
#162 = DIRECTION ( 'NONE',  ( 1.000000000000000000, 0.000000000000000000, -0.000000000000000000 ) ) ;
#163 = CC_DESIGN_SECURITY_CLASSIFICATION ( #98, ( #45 ) ) ;
#164 = CARTESIAN_POINT ( 'NONE',  ( -10.00000000000000000, 0.000000000000000000, 168.0000000000000000 ) ) ;
#165 = VERTEX_POINT ( 'NONE', #86 ) ;
#166 = PRODUCT_DEFINITION ( 'NEZNÁMÝ', '', #45, #22 ) ;
#167 = CARTESIAN_POINT ( 'NONE',  ( -13.00000000000000178, 0.000000000000000000, 8.000000000000000000 ) ) ;
#168 = DIRECTION ( 'NONE',  ( 1.224646799147353207E-16, 1.000000000000000000, -0.000000000000000000 ) ) ;
#169 = ORIENTED_EDGE ( 'NONE', *, *, #63, .F. ) ;
#170 = APPROVAL ( #90, 'NEURÈENÝ' ) ;
#171 = AXIS2_PLACEMENT_3D ( 'NONE', #173, #128, #266 ) ;
#172 = AXIS2_PLACEMENT_3D ( 'NONE', #140, #91, #188 ) ;
#173 = CARTESIAN_POINT ( 'NONE',  ( 0.000000000000000000, 0.000000000000000000, 0.000000000000000000 ) ) ;
#174 = PRODUCT ( '1cc9', '1cc9', '', ( #68 ) ) ;
#175 = DIRECTION ( 'NONE',  ( -0.000000000000000000, -0.000000000000000000, -1.000000000000000000 ) ) ;
#176 = DIRECTION ( 'NONE',  ( -0.000000000000000000, -0.000000000000000000, -1.000000000000000000 ) ) ;
#177 = EDGE_CURVE ( 'NONE', #196, #223, #17, .T. ) ;
#178 =( GEOMETRIC_REPRESENTATION_CONTEXT ( 3 ) GLOBAL_UNCERTAINTY_ASSIGNED_CONTEXT ( ( #14 ) ) GLOBAL_UNIT_ASSIGNED_CONTEXT ( ( #55, #267, #56 ) ) REPRESENTATION_CONTEXT ( 'NONE', 'WORKASPACE' ) );
#179 = PERSON_AND_ORGANIZATION ( #25, #207 ) ;
#180 = EDGE_LOOP ( 'NONE', ( #118, #41, #74, #169 ) ) ;
#181 = ADVANCED_BREP_SHAPE_REPRESENTATION ( '1cc9', ( #132, #28 ), #178 ) ;
#182 = PERSON_AND_ORGANIZATION ( #25, #207 ) ;
#183 = FACE_OUTER_BOUND ( 'NONE', #84, .T. ) ;
#184 = EDGE_CURVE ( 'NONE', #276, #136, #273, .T. ) ;
#185 = CIRCLE ( 'NONE', #172, 10.00000000000000000 ) ;
#186 = DIRECTION ( 'NONE',  ( 0.000000000000000000, 0.000000000000000000, 1.000000000000000000 ) ) ;
#187 = ORIENTED_EDGE ( 'NONE', *, *, #279, .T. ) ;
#188 = DIRECTION ( 'NONE',  ( 1.000000000000000000, 0.000000000000000000, 0.000000000000000000 ) ) ;
#189 = ORIENTED_EDGE ( 'NONE', *, *, #300, .T. ) ;
#190 = AXIS2_PLACEMENT_3D ( 'NONE', #305, #168, #263 ) ;
#191 = CARTESIAN_POINT ( 'NONE',  ( 0.000000000000000000, 0.000000000000000000, 8.200000000000013500 ) ) ;
#192 = ORIENTED_EDGE ( 'NONE', *, *, #81, .T. ) ;
#193 = EDGE_CURVE ( 'NONE', #99, #136, #222, .T. ) ;
#194 = DIRECTION ( 'NONE',  ( 0.000000000000000000, 0.000000000000000000, 1.000000000000000000 ) ) ;
#195 = VERTEX_POINT ( 'NONE', #281 ) ;
#196 = VERTEX_POINT ( 'NONE', #40 ) ;
#197 = CIRCLE ( 'NONE', #190, 0.2000000000000005107 ) ;
#198 = AXIS2_PLACEMENT_3D ( 'NONE', #278, #194, #284 ) ;
#199 = CC_DESIGN_PERSON_AND_ORGANIZATION_ASSIGNMENT ( #179, #254, ( #166 ) ) ;
#200 = CIRCLE ( 'NONE', #2, 10.00000000000000000 ) ;
#201 = VECTOR ( 'NONE', #175, 1000.000000000000000 ) ;
#202 = COORDINATED_UNIVERSAL_TIME_OFFSET ( 1, 0, .AHEAD. ) ;
#203 = ADVANCED_FACE ( 'NONE', ( #183 ), #238, .T. ) ;
#204 = FACE_OUTER_BOUND ( 'NONE', #48, .T. ) ;
#205 = ORIENTED_EDGE ( 'NONE', *, *, #122, .F. ) ;
#206 = VECTOR ( 'NONE', #112, 1000.000000000000000 ) ;
#207 = ORGANIZATION ( 'NEURÈENÝ', 'NEURÈENÝ', '' ) ;
#208 = CALENDAR_DATE ( 2022, 20, 6 ) ;
#209 = APPROVAL_ROLE ( '' ) ;
#210 = EDGE_CURVE ( 'NONE', #165, #99, #200, .T. ) ;
#211 = PERSON_AND_ORGANIZATION_ROLE ( 'design_supplier' ) ;
#212 = CARTESIAN_POINT ( 'NONE',  ( 13.00000000000000178, 1.592040838891559293E-15, 8.000000000000000000 ) ) ;
#213 = CYLINDRICAL_SURFACE ( 'NONE', #264, 13.00000000000000178 ) ;
#214 = APPROVAL_STATUS ( 'not_yet_approved' ) ;
#215 = PRODUCT_DEFINITION_SHAPE ( 'NONE', 'NONE',  #166 ) ;
#216 = CIRCLE ( 'NONE', #102, 13.00000000000000178 ) ;
#217 = CARTESIAN_POINT ( 'NONE',  ( 10.20000000000000107, 0.000000000000000000, 8.000000000000007105 ) ) ;
#218 = CYLINDRICAL_SURFACE ( 'NONE', #104, 13.00000000000000178 ) ;
#219 = APPLICATION_CONTEXT ( 'configuration controlled 3d designs of mechanical parts and assemblies' ) ;
#220 = DIRECTION ( 'NONE',  ( 0.000000000000000000, 0.000000000000000000, 1.000000000000000000 ) ) ;
#221 = ORIENTED_EDGE ( 'NONE', *, *, #177, .T. ) ;
#222 = LINE ( 'NONE', #164, #137 ) ;
#223 = VERTEX_POINT ( 'NONE', #275 ) ;
#224 = ORIENTED_EDGE ( 'NONE', *, *, #121, .T. ) ;
#225 = ADVANCED_FACE ( 'NONE', ( #160 ), #77, .F. ) ;
#226 = CC_DESIGN_APPROVAL ( #6, ( #166 ) ) ;
#227 = DIRECTION ( 'NONE',  ( 1.000000000000000000, 0.000000000000000000, 0.000000000000000000 ) ) ;
#228 = PERSON_AND_ORGANIZATION_ROLE ( 'design_owner' ) ;
#229 = COORDINATED_UNIVERSAL_TIME_OFFSET ( 1, 0, .AHEAD. ) ;
#230 = LOCAL_TIME ( 11, 20, 34.00000000000000000, #229 ) ;
#231 = APPROVAL_DATE_TIME ( #9, #6 ) ;
#232 = COORDINATED_UNIVERSAL_TIME_OFFSET ( 1, 0, .AHEAD. ) ;
#233 = AXIS2_PLACEMENT_3D ( 'NONE', #70, #44, #139 ) ;
#234 = ORIENTED_EDGE ( 'NONE', *, *, #177, .F. ) ;
#235 = DIRECTION ( 'NONE',  ( 0.000000000000000000, 0.000000000000000000, 1.000000000000000000 ) ) ;
#236 = CARTESIAN_POINT ( 'NONE',  ( 10.00000000000000000, 1.224646799147353256E-15, 168.0000000000000000 ) ) ;
#237 = AXIS2_PLACEMENT_3D ( 'NONE', #191, #256, #47 ) ;
#238 = CYLINDRICAL_SURFACE ( 'NONE', #76, 10.00000000000000000 ) ;
#239 = DIRECTION ( 'NONE',  ( -1.000000000000000000, 0.000000000000000000, 0.000000000000000000 ) ) ;
#240 = ORIENTED_EDGE ( 'NONE', *, *, #210, .T. ) ;
#241 = CLOSED_SHELL ( 'NONE', ( #100, #203, #51, #33, #46, #85, #94, #150, #225 ) ) ;
#242 = FACE_BOUND ( 'NONE', #306, .T. ) ;
#243 = EDGE_CURVE ( 'NONE', #136, #276, #145, .T. ) ;
#244 = DIRECTION ( 'NONE',  ( 1.000000000000000000, 0.000000000000000000, 0.000000000000000000 ) ) ;
#245 = AXIS2_PLACEMENT_3D ( 'NONE', #113, #161, #257 ) ;
#246 = CARTESIAN_POINT ( 'NONE',  ( 0.000000000000000000, 0.000000000000000000, 168.0000000000000000 ) ) ;
#247 = EDGE_CURVE ( 'NONE', #99, #165, #185, .T. ) ;
#248 = CALENDAR_DATE ( 2022, 20, 6 ) ;
#249 = CARTESIAN_POINT ( 'NONE',  ( 10.20000000000000107, 0.000000000000000000, 8.200000000000013500 ) ) ;
#250 = ORIENTED_EDGE ( 'NONE', *, *, #300, .F. ) ;
#251 = ORIENTED_EDGE ( 'NONE', *, *, #193, .T. ) ;
#252 = LOCAL_TIME ( 11, 20, 34.00000000000000000, #12 ) ;
#253 = COORDINATED_UNIVERSAL_TIME_OFFSET ( 1, 0, .AHEAD. ) ;
#254 = PERSON_AND_ORGANIZATION_ROLE ( 'creator' ) ;
#255 = AXIS2_PLACEMENT_3D ( 'NONE', #30, #155, #126 ) ;
#256 = DIRECTION ( 'NONE',  ( 0.000000000000000000, 0.000000000000000000, 1.000000000000000000 ) ) ;
#257 = DIRECTION ( 'NONE',  ( 1.000000000000000000, 0.000000000000000000, -0.000000000000000000 ) ) ;
#258 = DIRECTION ( 'NONE',  ( 1.000000000000000000, 0.000000000000000000, 0.000000000000000000 ) ) ;
#259 = LINE ( 'NONE', #236, #206 ) ;
#260 = EDGE_LOOP ( 'NONE', ( #73, #292 ) ) ;
#261 = ORIENTED_EDGE ( 'NONE', *, *, #184, .T. ) ;
#262 = CARTESIAN_POINT ( 'NONE',  ( -10.20000000000000107, 1.249139735130300365E-15, 8.000000000000007105 ) ) ;
#263 = DIRECTION ( 'NONE',  ( -1.000000000000000000, 1.224646799147353207E-16, 0.000000000000000000 ) ) ;
#264 = AXIS2_PLACEMENT_3D ( 'NONE', #89, #50, #239 ) ;
#265 = CC_DESIGN_DATE_AND_TIME_ASSIGNMENT ( #290, #129, ( #98 ) ) ;
#266 = DIRECTION ( 'NONE',  ( 1.000000000000000000, 0.000000000000000000, -0.000000000000000000 ) ) ;
#267 =( NAMED_UNIT ( * ) PLANE_ANGLE_UNIT ( ) SI_UNIT ( $, .RADIAN. ) );
#268 = CARTESIAN_POINT ( 'NONE',  ( 0.000000000000000000, 0.000000000000000000, 8.000000000000000000 ) ) ;
#269 = APPROVAL_DATE_TIME ( #157, #75 ) ;
#270 = CC_DESIGN_DATE_AND_TIME_ASSIGNMENT ( #114, #107, ( #166 ) ) ;
#271 = SHAPE_DEFINITION_REPRESENTATION ( #215, #181 ) ;
#272 = CARTESIAN_POINT ( 'NONE',  ( 0.000000000000000000, 0.000000000000000000, 8.200000000000013500 ) ) ;
#273 = CIRCLE ( 'NONE', #299, 10.00000000000000000 ) ;
#274 = LOCAL_TIME ( 11, 20, 34.00000000000000000, #232 ) ;
#275 = CARTESIAN_POINT ( 'NONE',  ( 13.00000000000000178, 1.592040838891559293E-15, 0.000000000000000000 ) ) ;
#276 = VERTEX_POINT ( 'NONE', #159 ) ;
#277 = PERSON_AND_ORGANIZATION ( #25, #207 ) ;
#278 = CARTESIAN_POINT ( 'NONE',  ( 0.000000000000000000, 0.000000000000000000, 0.000000000000000000 ) ) ;
#279 = EDGE_CURVE ( 'NONE', #195, #223, #65, .T. ) ;
#280 = DIRECTION ( 'NONE',  ( -1.000000000000000000, 0.000000000000000000, 0.000000000000000000 ) ) ;
#281 = CARTESIAN_POINT ( 'NONE',  ( -13.00000000000000178, 0.000000000000000000, 0.000000000000000000 ) ) ;
#282 = EDGE_LOOP ( 'NONE', ( #289, #60, #251, #95 ) ) ;
#283 = AXIS2_PLACEMENT_3D ( 'NONE', #72, #36, #64 ) ;
#284 = DIRECTION ( 'NONE',  ( 1.000000000000000000, 0.000000000000000000, 0.000000000000000000 ) ) ;
#285 = VERTEX_POINT ( 'NONE', #167 ) ;
#286 = ORIENTED_EDGE ( 'NONE', *, *, #81, .F. ) ;
#287 = APPROVAL_PERSON_ORGANIZATION ( #61, #6, #82 ) ;
#288 = LINE ( 'NONE', #78, #201 ) ;
#289 = ORIENTED_EDGE ( 'NONE', *, *, #146, .F. ) ;
#290 = DATE_AND_TIME ( #11, #252 ) ;
#291 = CC_DESIGN_APPROVAL ( #170, ( #98 ) ) ;
#292 = ORIENTED_EDGE ( 'NONE', *, *, #147, .T. ) ;
#293 = PERSON_AND_ORGANIZATION ( #25, #207 ) ;
#294 = CIRCLE ( 'NONE', #101, 0.2000000000000005107 ) ;
#295 = ORIENTED_EDGE ( 'NONE', *, *, #243, .F. ) ;
#296 = APPLICATION_PROTOCOL_DEFINITION ( 'international standard', 'config_control_design', 1994, #105 ) ;
#297 = DIRECTION ( 'NONE',  ( 0.000000000000000000, 0.000000000000000000, 1.000000000000000000 ) ) ;
#298 = VERTEX_POINT ( 'NONE', #262 ) ;
#299 = AXIS2_PLACEMENT_3D ( 'NONE', #138, #297, #96 ) ;
#300 = EDGE_CURVE ( 'NONE', #223, #195, #216, .T. ) ;
#301 = CARTESIAN_POINT ( 'NONE',  ( 0.000000000000000000, 0.000000000000000000, 168.0000000000000000 ) ) ;
#302 = CARTESIAN_POINT ( 'NONE',  ( 0.000000000000000000, 0.000000000000000000, 8.000000000000000000 ) ) ;
#303 = ORIENTED_EDGE ( 'NONE', *, *, #103, .F. ) ;
#304 = DIRECTION ( 'NONE',  ( -0.000000000000000000, -0.000000000000000000, -1.000000000000000000 ) ) ;
#305 = CARTESIAN_POINT ( 'NONE',  ( -10.20000000000000107, 1.249139735130300365E-15, 8.200000000000013500 ) ) ;
#306 = EDGE_LOOP ( 'NONE', ( #192, #38 ) ) ;
#307 = AXIS2_PLACEMENT_3D ( 'NONE', #246, #176, #152 ) ;
ENDSEC;
END-ISO-10303-21;
