ISO-10303-21;
HEADER;
FILE_DESCRIPTION (( 'STEP AP203' ),
    '1' );
FILE_NAME ('d5cd.STEP',
    '2022-06-20T09:21:24',
    ( '' ),
    ( '' ),
    'SwSTEP 2.0',
    'SolidWorks 2019',
    '' );
FILE_SCHEMA (( 'CONFIG_CONTROL_DESIGN' ));
ENDSEC;

DATA;
#1 = PERSON_AND_ORGANIZATION ( #187, #288 ) ;
#2 = AXIS2_PLACEMENT_3D ( 'NONE', #29, #217, #11 ) ;
#3 = DIRECTION ( 'NONE',  ( -0.000000000000000000, -0.000000000000000000, -1.000000000000000000 ) ) ;
#4 = EDGE_CURVE ( 'NONE', #22, #98, #207, .T. ) ;
#5 = FACE_OUTER_BOUND ( 'NONE', #120, .T. ) ;
#6 = CALENDAR_DATE ( 2022, 20, 6 ) ;
#7 = DIRECTION ( 'NONE',  ( 0.000000000000000000, 0.000000000000000000, 1.000000000000000000 ) ) ;
#8 = APPROVAL_STATUS ( 'not_yet_approved' ) ;
#9 = CARTESIAN_POINT ( 'NONE',  ( 0.000000000000000000, 0.000000000000000000, 507.0000000000000000 ) ) ;
#10 = CARTESIAN_POINT ( 'NONE',  ( 0.000000000000000000, 0.000000000000000000, 7.199999999999984190 ) ) ;
#11 = DIRECTION ( 'NONE',  ( 1.000000000000000000, 0.000000000000000000, 0.000000000000000000 ) ) ;
#12 = EDGE_CURVE ( 'NONE', #22, #48, #137, .T. ) ;
#13 = FACE_OUTER_BOUND ( 'NONE', #209, .T. ) ;
#14 = ORIENTED_EDGE ( 'NONE', *, *, #4, .T. ) ;
#15 = APPROVAL ( #195, 'NEURÈENÝ' ) ;
#16 = AXIS2_PLACEMENT_3D ( 'NONE', #148, #193, #280 ) ;
#17 = ORIENTED_EDGE ( 'NONE', *, *, #60, .T. ) ;
#18 = CARTESIAN_POINT ( 'NONE',  ( 9.000000000000000000, 1.102182119232617714E-15, 507.0000000000000000 ) ) ;
#19 = CARTESIAN_POINT ( 'NONE',  ( 0.000000000000000000, 0.000000000000000000, 7.199999999999984190 ) ) ;
#20 = CIRCLE ( 'NONE', #184, 0.1999999999999996503 ) ;
#21 = CARTESIAN_POINT ( 'NONE',  ( -9.199999999999999289, 1.126675055215564822E-15, 7.199999999999984190 ) ) ;
#22 = VERTEX_POINT ( 'NONE', #139 ) ;
#23 = DIRECTION ( 'NONE',  ( 1.000000000000000000, 0.000000000000000000, -0.000000000000000000 ) ) ;
#24 = CYLINDRICAL_SURFACE ( 'NONE', #294, 9.000000000000000000 ) ;
#25 = AXIS2_PLACEMENT_3D ( 'NONE', #243, #36, #220 ) ;
#26 = COORDINATED_UNIVERSAL_TIME_OFFSET ( 1, 0, .AHEAD. ) ;
#27 = APPLICATION_CONTEXT ( 'configuration controlled 3d designs of mechanical parts and assemblies' ) ;
#28 = DATE_TIME_ROLE ( 'classification_date' ) ;
#29 = CARTESIAN_POINT ( 'NONE',  ( 0.000000000000000000, 0.000000000000000000, 0.000000000000000000 ) ) ;
#30 = APPROVAL_ROLE ( '' ) ;
#31 = TOROIDAL_SURFACE ( 'NONE', #46, 9.199999999999999289, 0.2000000000000000111 ) ;
#32 = EDGE_CURVE ( 'NONE', #113, #271, #108, .T. ) ;
#33 = MECHANICAL_CONTEXT ( 'NONE', #27, 'mechanical' ) ;
#34 = CC_DESIGN_PERSON_AND_ORGANIZATION_ASSIGNMENT ( #53, #77, ( #201 ) ) ;
#35 = CARTESIAN_POINT ( 'NONE',  ( -12.00000000000000178, 0.000000000000000000, 7.000000000000000000 ) ) ;
#36 = DIRECTION ( 'NONE',  ( 0.000000000000000000, 0.000000000000000000, 1.000000000000000000 ) ) ;
#37 = DIRECTION ( 'NONE',  ( 1.000000000000000000, 0.000000000000000000, 0.000000000000000000 ) ) ;
#38 = CIRCLE ( 'NONE', #233, 12.00000000000000178 ) ;
#39 = ADVANCED_FACE ( 'NONE', ( #94 ), #212, .T. ) ;
#40 = MANIFOLD_SOLID_BREP ( 'Zaoblit1', #103 ) ;
#41 = PRODUCT_DEFINITION ( 'NEZNÁMÝ', '', #201, #265 ) ;
#42 = ORIENTED_EDGE ( 'NONE', *, *, #283, .F. ) ;
#43 = VERTEX_POINT ( 'NONE', #259 ) ;
#44 = ORIENTED_EDGE ( 'NONE', *, *, #32, .T. ) ;
#45 = CARTESIAN_POINT ( 'NONE',  ( 0.000000000000000000, 0.000000000000000000, 7.000000000000000000 ) ) ;
#46 = AXIS2_PLACEMENT_3D ( 'NONE', #19, #211, #298 ) ;
#47 = DIRECTION ( 'NONE',  ( 1.000000000000000000, 0.000000000000000000, 0.000000000000000000 ) ) ;
#48 = VERTEX_POINT ( 'NONE', #76 ) ;
#49 = EDGE_CURVE ( 'NONE', #271, #43, #194, .T. ) ;
#50 = APPROVAL_ROLE ( '' ) ;
#51 = CALENDAR_DATE ( 2022, 20, 6 ) ;
#52 = DIRECTION ( 'NONE',  ( 1.000000000000000000, 0.000000000000000000, -0.000000000000000000 ) ) ;
#53 = PERSON_AND_ORGANIZATION ( #187, #288 ) ;
#54 = APPROVAL_PERSON_ORGANIZATION ( #198, #163, #50 ) ;
#55 = CARTESIAN_POINT ( 'NONE',  ( 0.000000000000000000, 0.000000000000000000, 7.000000000000000000 ) ) ;
#56 = CALENDAR_DATE ( 2022, 20, 6 ) ;
#57 = CIRCLE ( 'NONE', #228, 9.000000000000000000 ) ;
#58 = CARTESIAN_POINT ( 'NONE',  ( 12.00000000000000178, 1.469576158976824144E-15, 0.000000000000000000 ) ) ;
#59 = DIRECTION ( 'NONE',  ( -0.000000000000000000, -0.000000000000000000, -1.000000000000000000 ) ) ;
#60 = EDGE_CURVE ( 'NONE', #98, #22, #57, .T. ) ;
#61 = FACE_OUTER_BOUND ( 'NONE', #297, .T. ) ;
#62 = CIRCLE ( 'NONE', #204, 12.00000000000000178 ) ;
#63 = DIRECTION ( 'NONE',  ( 1.000000000000000000, 0.000000000000000000, 0.000000000000000000 ) ) ;
#64 = CC_DESIGN_PERSON_AND_ORGANIZATION_ASSIGNMENT ( #151, #174, ( #168 ) ) ;
#65 = ORIENTED_EDGE ( 'NONE', *, *, #249, .F. ) ;
#66 = LOCAL_TIME ( 11, 21, 24.00000000000000000, #129 ) ;
#67 = ORIENTED_EDGE ( 'NONE', *, *, #215, .T. ) ;
#68 = DIRECTION ( 'NONE',  ( -1.000000000000000000, 0.000000000000000000, 0.000000000000000000 ) ) ;
#69 = ORIENTED_EDGE ( 'NONE', *, *, #91, .T. ) ;
#70 = DIRECTION ( 'NONE',  ( -0.000000000000000000, -0.000000000000000000, -1.000000000000000000 ) ) ;
#71 = ADVANCED_FACE ( 'NONE', ( #124, #5 ), #239, .T. ) ;
#72 = EDGE_LOOP ( 'NONE', ( #275, #166, #114, #143 ) ) ;
#73 = DIRECTION ( 'NONE',  ( 0.000000000000000000, 0.000000000000000000, -1.000000000000000000 ) ) ;
#74 = AXIS2_PLACEMENT_3D ( 'NONE', #9, #260, #52 ) ;
#75 = ORIENTED_EDGE ( 'NONE', *, *, #116, .F. ) ;
#76 = CARTESIAN_POINT ( 'NONE',  ( 9.000000000000000000, 1.102182119232617714E-15, 7.199999999999984190 ) ) ;
#77 = PERSON_AND_ORGANIZATION_ROLE ( 'design_supplier' ) ;
#78 = APPROVAL_PERSON_ORGANIZATION ( #122, #131, #150 ) ;
#79 = DIRECTION ( 'NONE',  ( 1.000000000000000000, 0.000000000000000000, 0.000000000000000000 ) ) ;
#80 = DATE_AND_TIME ( #218, #262 ) ;
#81 = DATE_TIME_ROLE ( 'creation_date' ) ;
#82 = APPLICATION_CONTEXT ( 'configuration controlled 3d designs of mechanical parts and assemblies' ) ;
#83 = FACE_OUTER_BOUND ( 'NONE', #72, .T. ) ;
#84 = CARTESIAN_POINT ( 'NONE',  ( -9.000000000000000000, 0.000000000000000000, 507.0000000000000000 ) ) ;
#85 = AXIS2_PLACEMENT_3D ( 'NONE', #223, #290, #183 ) ;
#86 = CARTESIAN_POINT ( 'NONE',  ( -12.00000000000000178, 0.000000000000000000, 0.000000000000000000 ) ) ;
#87 = CARTESIAN_POINT ( 'NONE',  ( 0.000000000000000000, 0.000000000000000000, 7.000000000000000000 ) ) ;
#88 = VECTOR ( 'NONE', #244, 1000.000000000000000 ) ;
#89 =( NAMED_UNIT ( * ) PLANE_ANGLE_UNIT ( ) SI_UNIT ( $, .RADIAN. ) );
#90 = LINE ( 'NONE', #84, #101 ) ;
#91 = EDGE_CURVE ( 'NONE', #93, #231, #123, .T. ) ;
#92 = DIRECTION ( 'NONE',  ( 0.000000000000000000, 0.000000000000000000, 1.000000000000000000 ) ) ;
#93 = VERTEX_POINT ( 'NONE', #86 ) ;
#94 = FACE_OUTER_BOUND ( 'NONE', #189, .T. ) ;
#95 = ADVANCED_FACE ( 'NONE', ( #13 ), #182, .T. ) ;
#96 = ORIENTED_EDGE ( 'NONE', *, *, #159, .T. ) ;
#97 = CC_DESIGN_PERSON_AND_ORGANIZATION_ASSIGNMENT ( #237, #242, ( #201 ) ) ;
#98 = VERTEX_POINT ( 'NONE', #221 ) ;
#99 = CARTESIAN_POINT ( 'NONE',  ( 12.00000000000000178, 1.469576158976824144E-15, 7.000000000000000000 ) ) ;
#100 = AXIS2_PLACEMENT_3D ( 'NONE', #127, #7, #23 ) ;
#101 = VECTOR ( 'NONE', #130, 1000.000000000000000 ) ;
#102 = CALENDAR_DATE ( 2022, 20, 6 ) ;
#103 = CLOSED_SHELL ( 'NONE', ( #205, #39, #121, #95, #71, #190, #232, #224, #138 ) ) ;
#104 = COORDINATED_UNIVERSAL_TIME_OFFSET ( 1, 0, .AHEAD. ) ;
#105 = DIRECTION ( 'NONE',  ( 0.000000000000000000, 0.000000000000000000, 1.000000000000000000 ) ) ;
#106 = DIRECTION ( 'NONE',  ( 0.000000000000000000, 0.000000000000000000, 1.000000000000000000 ) ) ;
#107 = LINE ( 'NONE', #235, #267 ) ;
#108 = CIRCLE ( 'NONE', #300, 0.2000000000000005107 ) ;
#109 = DIRECTION ( 'NONE',  ( -0.000000000000000000, -0.000000000000000000, -1.000000000000000000 ) ) ;
#110 = CARTESIAN_POINT ( 'NONE',  ( 0.000000000000000000, 0.000000000000000000, 0.000000000000000000 ) ) ;
#111 = SECURITY_CLASSIFICATION ( '', '', #219 ) ;
#112 = CC_DESIGN_APPROVAL ( #15, ( #41 ) ) ;
#113 = VERTEX_POINT ( 'NONE', #177 ) ;
#114 = ORIENTED_EDGE ( 'NONE', *, *, #172, .T. ) ;
#115 = ORIENTED_EDGE ( 'NONE', *, *, #249, .T. ) ;
#116 = EDGE_CURVE ( 'NONE', #113, #48, #216, .T. ) ;
#117 = AXIS2_PLACEMENT_3D ( 'NONE', #292, #210, #165 ) ;
#118 = DIRECTION ( 'NONE',  ( -1.000000000000000000, 1.224646799147353207E-16, 0.000000000000000000 ) ) ;
#119 = DIRECTION ( 'NONE',  ( -0.000000000000000000, -0.000000000000000000, -1.000000000000000000 ) ) ;
#120 = EDGE_LOOP ( 'NONE', ( #213, #192 ) ) ;
#121 = ADVANCED_FACE ( 'NONE', ( #61 ), #246, .T. ) ;
#122 = PERSON_AND_ORGANIZATION ( #187, #288 ) ;
#123 = CIRCLE ( 'NONE', #2, 12.00000000000000178 ) ;
#124 = FACE_BOUND ( 'NONE', #188, .T. ) ;
#125 = PERSON_AND_ORGANIZATION_ROLE ( 'classification_officer' ) ;
#126 = EDGE_CURVE ( 'NONE', #274, #226, #62, .T. ) ;
#127 = CARTESIAN_POINT ( 'NONE',  ( 0.000000000000000000, 0.000000000000000000, 7.000000000000000000 ) ) ;
#128 = AXIS2_PLACEMENT_3D ( 'NONE', #45, #70, #301 ) ;
#129 = COORDINATED_UNIVERSAL_TIME_OFFSET ( 1, 0, .AHEAD. ) ;
#130 = DIRECTION ( 'NONE',  ( -0.000000000000000000, -0.000000000000000000, -1.000000000000000000 ) ) ;
#131 = APPROVAL ( #175, 'NEURÈENÝ' ) ;
#132 = DIRECTION ( 'NONE',  ( 0.000000000000000000, 0.000000000000000000, 1.000000000000000000 ) ) ;
#133 = FACE_OUTER_BOUND ( 'NONE', #234, .T. ) ;
#134 = CIRCLE ( 'NONE', #167, 9.000000000000000000 ) ;
#135 = CARTESIAN_POINT ( 'NONE',  ( 0.000000000000000000, 0.000000000000000000, 7.000000000000000000 ) ) ;
#136 = CC_DESIGN_PERSON_AND_ORGANIZATION_ASSIGNMENT ( #176, #125, ( #111 ) ) ;
#137 = LINE ( 'NONE', #18, #145 ) ;
#138 = ADVANCED_FACE ( 'NONE', ( #185 ), #253, .F. ) ;
#139 = CARTESIAN_POINT ( 'NONE',  ( 9.000000000000000000, 1.102182119232617714E-15, 507.0000000000000000 ) ) ;
#140 =( NAMED_UNIT ( * ) SI_UNIT ( $, .STERADIAN. ) SOLID_ANGLE_UNIT ( ) );
#141 = ORIENTED_EDGE ( 'NONE', *, *, #49, .T. ) ;
#142 = AXIS2_PLACEMENT_3D ( 'NONE', #152, #132, #203 ) ;
#143 = ORIENTED_EDGE ( 'NONE', *, *, #116, .T. ) ;
#144 = EDGE_CURVE ( 'NONE', #274, #231, #222, .T. ) ;
#145 = VECTOR ( 'NONE', #208, 1000.000000000000000 ) ;
#146 = DIRECTION ( 'NONE',  ( 0.000000000000000000, 0.000000000000000000, 1.000000000000000000 ) ) ;
#147 = LOCAL_TIME ( 11, 21, 24.00000000000000000, #255 ) ;
#148 = CARTESIAN_POINT ( 'NONE',  ( 0.000000000000000000, 0.000000000000000000, 507.0000000000000000 ) ) ;
#149 = EDGE_CURVE ( 'NONE', #226, #274, #256, .T. ) ;
#150 = APPROVAL_ROLE ( '' ) ;
#151 = PERSON_AND_ORGANIZATION ( #187, #288 ) ;
#152 = CARTESIAN_POINT ( 'NONE',  ( 0.000000000000000000, 0.000000000000000000, 7.199999999999984190 ) ) ;
#153 = CC_DESIGN_SECURITY_CLASSIFICATION ( #111, ( #201 ) ) ;
#154 = SHAPE_DEFINITION_REPRESENTATION ( #306, #307 ) ;
#155 = PLANE ( 'NONE',  #25 ) ;
#156 = APPROVAL_PERSON_ORGANIZATION ( #264, #15, #30 ) ;
#157 = DIRECTION ( 'NONE',  ( 0.000000000000000000, 0.000000000000000000, 1.000000000000000000 ) ) ;
#158 = EDGE_LOOP ( 'NONE', ( #250, #247, #115, #191 ) ) ;
#159 = EDGE_CURVE ( 'NONE', #231, #93, #38, .T. ) ;
#160 = ORIENTED_EDGE ( 'NONE', *, *, #172, .F. ) ;
#161 =( LENGTH_UNIT ( ) NAMED_UNIT ( * ) SI_UNIT ( .MILLI., .METRE. ) );
#162 = UNCERTAINTY_MEASURE_WITH_UNIT (LENGTH_MEASURE( 1.000000000000000082E-05 ), #161, 'distance_accuracy_value', 'NONE');
#163 = APPROVAL ( #8, 'NEURÈENÝ' ) ;
#164 = EDGE_LOOP ( 'NONE', ( #17, #14 ) ) ;
#165 = DIRECTION ( 'NONE',  ( 1.000000000000000000, 0.000000000000000000, 0.000000000000000000 ) ) ;
#166 = ORIENTED_EDGE ( 'NONE', *, *, #60, .F. ) ;
#167 = AXIS2_PLACEMENT_3D ( 'NONE', #10, #106, #37 ) ;
#168 = PRODUCT ( 'd5cd', 'd5cd', '', ( #33 ) ) ;
#169 = ORIENTED_EDGE ( 'NONE', *, *, #144, .T. ) ;
#170 = CARTESIAN_POINT ( 'NONE',  ( 0.000000000000000000, 0.000000000000000000, 7.000000000000000000 ) ) ;
#171 = APPROVAL_DATE_TIME ( #178, #15 ) ;
#172 = EDGE_CURVE ( 'NONE', #98, #113, #90, .T. ) ;
#173 = LOCAL_TIME ( 11, 21, 24.00000000000000000, #104 ) ;
#174 = PERSON_AND_ORGANIZATION_ROLE ( 'design_owner' ) ;
#175 = APPROVAL_STATUS ( 'not_yet_approved' ) ;
#176 = PERSON_AND_ORGANIZATION ( #187, #288 ) ;
#177 = CARTESIAN_POINT ( 'NONE',  ( -9.000000000000000000, 0.000000000000000000, 7.199999999999984190 ) ) ;
#178 = DATE_AND_TIME ( #56, #225 ) ;
#179 = PLANE ( 'NONE',  #74 ) ;
#180 = CARTESIAN_POINT ( 'NONE',  ( 0.000000000000000000, 0.000000000000000000, 7.000000000000000000 ) ) ;
#181 = AXIS2_PLACEMENT_3D ( 'NONE', #251, #92, #47 ) ;
#182 = CYLINDRICAL_SURFACE ( 'NONE', #258, 12.00000000000000178 ) ;
#183 = DIRECTION ( 'NONE',  ( 1.000000000000000000, 0.000000000000000000, 0.000000000000000000 ) ) ;
#184 = AXIS2_PLACEMENT_3D ( 'NONE', #303, #252, #73 ) ;
#185 = FACE_OUTER_BOUND ( 'NONE', #158, .T. ) ;
#186 = EDGE_LOOP ( 'NONE', ( #229, #227 ) ) ;
#187 = PERSON ( 'NEURÈENÝ', 'NEURÈENÝ', 'NEURÈENÝ', ('NEURÈENÝ'), ('NEURÈENÝ'), ('NEURÈENÝ') ) ;
#188 = EDGE_LOOP ( 'NONE', ( #248, #141 ) ) ;
#189 = EDGE_LOOP ( 'NONE', ( #206, #299, #269, #160 ) ) ;
#190 = ADVANCED_FACE ( 'NONE', ( #241 ), #155, .F. ) ;
#191 = ORIENTED_EDGE ( 'NONE', *, *, #49, .F. ) ;
#192 = ORIENTED_EDGE ( 'NONE', *, *, #126, .T. ) ;
#193 = DIRECTION ( 'NONE',  ( -0.000000000000000000, -0.000000000000000000, -1.000000000000000000 ) ) ;
#194 = CIRCLE ( 'NONE', #273, 9.199999999999999289 ) ;
#195 = APPROVAL_STATUS ( 'not_yet_approved' ) ;
#196 = DIRECTION ( 'NONE',  ( 1.000000000000000000, 0.000000000000000000, 0.000000000000000000 ) ) ;
#197 = AXIS2_PLACEMENT_3D ( 'NONE', #135, #59, #263 ) ;
#198 = PERSON_AND_ORGANIZATION ( #187, #288 ) ;
#199 = APPROVAL_DATE_TIME ( #80, #163 ) ;
#200 = APPROVAL_DATE_TIME ( #287, #131 ) ;
#201 = PRODUCT_DEFINITION_FORMATION_WITH_SPECIFIED_SOURCE ( 'LIBOVOLNÝ', '', #168, .NOT_KNOWN. ) ;
#202 = EDGE_CURVE ( 'NONE', #48, #113, #134, .T. ) ;
#203 = DIRECTION ( 'NONE',  ( 1.000000000000000000, 0.000000000000000000, 0.000000000000000000 ) ) ;
#204 = AXIS2_PLACEMENT_3D ( 'NONE', #55, #266, #63 ) ;
#205 = ADVANCED_FACE ( 'NONE', ( #133 ), #31, .F. ) ;
#206 = ORIENTED_EDGE ( 'NONE', *, *, #4, .F. ) ;
#207 = CIRCLE ( 'NONE', #181, 9.000000000000000000 ) ;
#208 = DIRECTION ( 'NONE',  ( -0.000000000000000000, -0.000000000000000000, -1.000000000000000000 ) ) ;
#209 = EDGE_LOOP ( 'NONE', ( #272, #295, #67, #69 ) ) ;
#210 = DIRECTION ( 'NONE',  ( 0.000000000000000000, 0.000000000000000000, 1.000000000000000000 ) ) ;
#211 = DIRECTION ( 'NONE',  ( 0.000000000000000000, 0.000000000000000000, 1.000000000000000000 ) ) ;
#212 = CYLINDRICAL_SURFACE ( 'NONE', #16, 9.000000000000000000 ) ;
#213 = ORIENTED_EDGE ( 'NONE', *, *, #149, .T. ) ;
#214 = DIRECTION ( 'NONE',  ( -0.000000000000000000, -0.000000000000000000, -1.000000000000000000 ) ) ;
#215 = EDGE_CURVE ( 'NONE', #226, #93, #107, .T. ) ;
#216 = CIRCLE ( 'NONE', #85, 9.000000000000000000 ) ;
#217 = DIRECTION ( 'NONE',  ( 0.000000000000000000, 0.000000000000000000, 1.000000000000000000 ) ) ;
#218 = CALENDAR_DATE ( 2022, 20, 6 ) ;
#219 = SECURITY_CLASSIFICATION_LEVEL ( 'unclassified' ) ;
#220 = DIRECTION ( 'NONE',  ( 1.000000000000000000, 0.000000000000000000, -0.000000000000000000 ) ) ;
#221 = CARTESIAN_POINT ( 'NONE',  ( -9.000000000000000000, 0.000000000000000000, 507.0000000000000000 ) ) ;
#222 = LINE ( 'NONE', #291, #88 ) ;
#223 = CARTESIAN_POINT ( 'NONE',  ( 0.000000000000000000, 0.000000000000000000, 7.199999999999984190 ) ) ;
#224 = ADVANCED_FACE ( 'NONE', ( #304 ), #179, .T. ) ;
#225 = LOCAL_TIME ( 11, 21, 24.00000000000000000, #26 ) ;
#226 = VERTEX_POINT ( 'NONE', #35 ) ;
#227 = ORIENTED_EDGE ( 'NONE', *, *, #159, .F. ) ;
#228 = AXIS2_PLACEMENT_3D ( 'NONE', #238, #146, #196 ) ;
#229 = ORIENTED_EDGE ( 'NONE', *, *, #91, .F. ) ;
#230 = APPLICATION_PROTOCOL_DEFINITION ( 'international standard', 'config_control_design', 1994, #27 ) ;
#231 = VERTEX_POINT ( 'NONE', #58 ) ;
#232 = ADVANCED_FACE ( 'NONE', ( #83 ), #24, .T. ) ;
#233 = AXIS2_PLACEMENT_3D ( 'NONE', #110, #157, #289 ) ;
#234 = EDGE_LOOP ( 'NONE', ( #75, #44, #42, #65 ) ) ;
#235 = CARTESIAN_POINT ( 'NONE',  ( -12.00000000000000178, 0.000000000000000000, 7.000000000000000000 ) ) ;
#236 = CC_DESIGN_DATE_AND_TIME_ASSIGNMENT ( #240, #81, ( #41 ) ) ;
#237 = PERSON_AND_ORGANIZATION ( #187, #288 ) ;
#238 = CARTESIAN_POINT ( 'NONE',  ( 0.000000000000000000, 0.000000000000000000, 507.0000000000000000 ) ) ;
#239 = PLANE ( 'NONE',  #100 ) ;
#240 = DATE_AND_TIME ( #102, #173 ) ;
#241 = FACE_OUTER_BOUND ( 'NONE', #186, .T. ) ;
#242 = PERSON_AND_ORGANIZATION_ROLE ( 'creator' ) ;
#243 = CARTESIAN_POINT ( 'NONE',  ( 0.000000000000000000, 0.000000000000000000, 0.000000000000000000 ) ) ;
#244 = DIRECTION ( 'NONE',  ( -0.000000000000000000, -0.000000000000000000, -1.000000000000000000 ) ) ;
#245 = CIRCLE ( 'NONE', #128, 9.199999999999999289 ) ;
#246 = CYLINDRICAL_SURFACE ( 'NONE', #197, 12.00000000000000178 ) ;
#247 = ORIENTED_EDGE ( 'NONE', *, *, #202, .F. ) ;
#248 = ORIENTED_EDGE ( 'NONE', *, *, #283, .T. ) ;
#249 = EDGE_CURVE ( 'NONE', #48, #43, #20, .T. ) ;
#250 = ORIENTED_EDGE ( 'NONE', *, *, #32, .F. ) ;
#251 = CARTESIAN_POINT ( 'NONE',  ( 0.000000000000000000, 0.000000000000000000, 507.0000000000000000 ) ) ;
#252 = DIRECTION ( 'NONE',  ( 0.000000000000000000, -1.000000000000000000, 0.000000000000000000 ) ) ;
#253 = TOROIDAL_SURFACE ( 'NONE', #142, 9.199999999999999289, 0.2000000000000000111 ) ;
#254 = ORIENTED_EDGE ( 'NONE', *, *, #215, .F. ) ;
#255 = COORDINATED_UNIVERSAL_TIME_OFFSET ( 1, 0, .AHEAD. ) ;
#256 = CIRCLE ( 'NONE', #282, 12.00000000000000178 ) ;
#257 = COORDINATED_UNIVERSAL_TIME_OFFSET ( 1, 0, .AHEAD. ) ;
#258 = AXIS2_PLACEMENT_3D ( 'NONE', #180, #109, #285 ) ;
#259 = CARTESIAN_POINT ( 'NONE',  ( 9.199999999999999289, 0.000000000000000000, 6.999999999999992006 ) ) ;
#260 = DIRECTION ( 'NONE',  ( 0.000000000000000000, 0.000000000000000000, 1.000000000000000000 ) ) ;
#261 = PERSON_AND_ORGANIZATION_ROLE ( 'creator' ) ;
#262 = LOCAL_TIME ( 11, 21, 24.00000000000000000, #257 ) ;
#263 = DIRECTION ( 'NONE',  ( -1.000000000000000000, 0.000000000000000000, 0.000000000000000000 ) ) ;
#264 = PERSON_AND_ORGANIZATION ( #187, #288 ) ;
#265 = DESIGN_CONTEXT ( 'detailed design', #82, 'design' ) ;
#266 = DIRECTION ( 'NONE',  ( 0.000000000000000000, 0.000000000000000000, 1.000000000000000000 ) ) ;
#267 = VECTOR ( 'NONE', #214, 1000.000000000000000 ) ;
#268 = CC_DESIGN_DATE_AND_TIME_ASSIGNMENT ( #284, #28, ( #111 ) ) ;
#269 = ORIENTED_EDGE ( 'NONE', *, *, #202, .T. ) ;
#270 =( GEOMETRIC_REPRESENTATION_CONTEXT ( 3 ) GLOBAL_UNCERTAINTY_ASSIGNED_CONTEXT ( ( #162 ) ) GLOBAL_UNIT_ASSIGNED_CONTEXT ( ( #161, #89, #140 ) ) REPRESENTATION_CONTEXT ( 'NONE', 'WORKASPACE' ) );
#271 = VERTEX_POINT ( 'NONE', #279 ) ;
#272 = ORIENTED_EDGE ( 'NONE', *, *, #144, .F. ) ;
#273 = AXIS2_PLACEMENT_3D ( 'NONE', #170, #3, #79 ) ;
#274 = VERTEX_POINT ( 'NONE', #99 ) ;
#275 = ORIENTED_EDGE ( 'NONE', *, *, #12, .F. ) ;
#276 = CC_DESIGN_APPROVAL ( #163, ( #111 ) ) ;
#277 = CARTESIAN_POINT ( 'NONE',  ( 0.000000000000000000, 0.000000000000000000, 507.0000000000000000 ) ) ;
#278 = CC_DESIGN_APPROVAL ( #131, ( #201 ) ) ;
#279 = CARTESIAN_POINT ( 'NONE',  ( -9.199999999999999289, 1.126675055215564822E-15, 6.999999999999992006 ) ) ;
#280 = DIRECTION ( 'NONE',  ( -1.000000000000000000, 0.000000000000000000, 0.000000000000000000 ) ) ;
#281 = APPLICATION_PROTOCOL_DEFINITION ( 'international standard', 'config_control_design', 1994, #82 ) ;
#282 = AXIS2_PLACEMENT_3D ( 'NONE', #87, #105, #293 ) ;
#283 = EDGE_CURVE ( 'NONE', #43, #271, #245, .T. ) ;
#284 = DATE_AND_TIME ( #6, #147 ) ;
#285 = DIRECTION ( 'NONE',  ( -1.000000000000000000, 0.000000000000000000, 0.000000000000000000 ) ) ;
#286 = CC_DESIGN_PERSON_AND_ORGANIZATION_ASSIGNMENT ( #1, #261, ( #41 ) ) ;
#287 = DATE_AND_TIME ( #51, #66 ) ;
#288 = ORGANIZATION ( 'NEURÈENÝ', 'NEURÈENÝ', '' ) ;
#289 = DIRECTION ( 'NONE',  ( 1.000000000000000000, 0.000000000000000000, 0.000000000000000000 ) ) ;
#290 = DIRECTION ( 'NONE',  ( 0.000000000000000000, 0.000000000000000000, 1.000000000000000000 ) ) ;
#291 = CARTESIAN_POINT ( 'NONE',  ( 12.00000000000000178, 1.469576158976824144E-15, 7.000000000000000000 ) ) ;
#292 = CARTESIAN_POINT ( 'NONE',  ( 0.000000000000000000, 0.000000000000000000, 0.000000000000000000 ) ) ;
#293 = DIRECTION ( 'NONE',  ( 1.000000000000000000, 0.000000000000000000, 0.000000000000000000 ) ) ;
#294 = AXIS2_PLACEMENT_3D ( 'NONE', #277, #119, #68 ) ;
#295 = ORIENTED_EDGE ( 'NONE', *, *, #149, .F. ) ;
#296 = DIRECTION ( 'NONE',  ( 1.224646799147353207E-16, 1.000000000000000000, -0.000000000000000000 ) ) ;
#297 = EDGE_LOOP ( 'NONE', ( #302, #169, #96, #254 ) ) ;
#298 = DIRECTION ( 'NONE',  ( 1.000000000000000000, 0.000000000000000000, 0.000000000000000000 ) ) ;
#299 = ORIENTED_EDGE ( 'NONE', *, *, #12, .T. ) ;
#300 = AXIS2_PLACEMENT_3D ( 'NONE', #21, #296, #118 ) ;
#301 = DIRECTION ( 'NONE',  ( 1.000000000000000000, 0.000000000000000000, 0.000000000000000000 ) ) ;
#302 = ORIENTED_EDGE ( 'NONE', *, *, #126, .F. ) ;
#303 = CARTESIAN_POINT ( 'NONE',  ( 9.199999999999999289, 0.000000000000000000, 7.199999999999984190 ) ) ;
#304 = FACE_OUTER_BOUND ( 'NONE', #164, .T. ) ;
#305 = PRODUCT_RELATED_PRODUCT_CATEGORY ( 'detail', '', ( #168 ) ) ;
#306 = PRODUCT_DEFINITION_SHAPE ( 'NONE', 'NONE',  #41 ) ;
#307 = ADVANCED_BREP_SHAPE_REPRESENTATION ( 'd5cd', ( #40, #117 ), #270 ) ;
ENDSEC;
END-ISO-10303-21;
