ISO-10303-21;
HEADER;
FILE_DESCRIPTION (( 'STEP AP203' ),
    '1' );
FILE_NAME ('9104.STEP',
    '2022-06-20T10:29:01',
    ( '' ),
    ( '' ),
    'SwSTEP 2.0',
    'SolidWorks 2019',
    '' );
FILE_SCHEMA (( 'CONFIG_CONTROL_DESIGN' ));
ENDSEC;

DATA;
#1 = ORIENTED_EDGE ( 'NONE', *, *, #247, .F. ) ;
#2 = ADVANCED_FACE ( 'NONE', ( #285 ), #258, .T. ) ;
#3 = CIRCLE ( 'NONE', #59, 0.5000000000000000000 ) ;
#4 = ORIENTED_EDGE ( 'NONE', *, *, #26, .T. ) ;
#5 = ADVANCED_FACE ( 'NONE', ( #38 ), #9, .T. ) ;
#6 = ORIENTED_EDGE ( 'NONE', *, *, #30, .F. ) ;
#7 = AXIS2_PLACEMENT_3D ( 'NONE', #243, #174, #68 ) ;
#8 = DIRECTION ( 'NONE',  ( 0.000000000000000000, 0.000000000000000000, 1.000000000000000000 ) ) ;
#9 = CYLINDRICAL_SURFACE ( 'NONE', #150, 1.250000000000000000 ) ;
#10 = CYLINDRICAL_SURFACE ( 'NONE', #162, 1.250000000000000000 ) ;
#11 = AXIS2_PLACEMENT_3D ( 'NONE', #132, #138, #48 ) ;
#12 =( NAMED_UNIT ( * ) PLANE_ANGLE_UNIT ( ) SI_UNIT ( $, .RADIAN. ) );
#13 = CARTESIAN_POINT ( 'NONE',  ( 1.250000000000000000, 1.530808498934191571E-16, 1.199999999999999956 ) ) ;
#14 = DIRECTION ( 'NONE',  ( 1.000000000000000000, 0.000000000000000000, 0.000000000000000000 ) ) ;
#15 = DIRECTION ( 'NONE',  ( 0.000000000000000000, 0.000000000000000000, 1.000000000000000000 ) ) ;
#16 = CARTESIAN_POINT ( 'NONE',  ( 0.000000000000000000, 0.000000000000000000, 1.399999999999998579 ) ) ;
#17 = CC_DESIGN_PERSON_AND_ORGANIZATION_ASSIGNMENT ( #170, #20, ( #196 ) ) ;
#18 = PERSON_AND_ORGANIZATION ( #28, #274 ) ;
#19 = CARTESIAN_POINT ( 'NONE',  ( 0.000000000000000000, 0.000000000000000000, 101.2000000000000171 ) ) ;
#20 = PERSON_AND_ORGANIZATION_ROLE ( 'design_owner' ) ;
#21 = DIRECTION ( 'NONE',  ( 0.000000000000000000, 0.000000000000000000, 1.000000000000000000 ) ) ;
#22 = LOCAL_TIME ( 12, 29, 1.000000000000000000, #63 ) ;
#23 = CYLINDRICAL_SURFACE ( 'NONE', #11, 0.5000000000000000000 ) ;
#24 = CC_DESIGN_APPROVAL ( #183, ( #220 ) ) ;
#25 = ORIENTED_EDGE ( 'NONE', *, *, #76, .F. ) ;
#26 = EDGE_CURVE ( 'NONE', #282, #206, #240, .T. ) ;
#27 = EDGE_LOOP ( 'NONE', ( #115, #4, #204, #6 ) ) ;
#28 = PERSON ( 'NEURÈENÝ', 'NEURÈENÝ', 'NEURÈENÝ', ('NEURÈENÝ'), ('NEURÈENÝ'), ('NEURÈENÝ') ) ;
#29 = FACE_OUTER_BOUND ( 'NONE', #225, .T. ) ;
#30 = EDGE_CURVE ( 'NONE', #307, #249, #289, .T. ) ;
#31 = ORIENTED_EDGE ( 'NONE', *, *, #30, .T. ) ;
#32 = AXIS2_PLACEMENT_3D ( 'NONE', #58, #213, #45 ) ;
#33 = ORIENTED_EDGE ( 'NONE', *, *, #253, .F. ) ;
#34 = ORIENTED_EDGE ( 'NONE', *, *, #101, .T. ) ;
#35 = FACE_OUTER_BOUND ( 'NONE', #284, .T. ) ;
#36 = ADVANCED_FACE ( 'NONE', ( #106, #128 ), #120, .T. ) ;
#37 = CIRCLE ( 'NONE', #297, 0.1999999999999999833 ) ;
#38 = FACE_OUTER_BOUND ( 'NONE', #27, .T. ) ;
#39 = DIRECTION ( 'NONE',  ( -0.000000000000000000, -0.000000000000000000, -1.000000000000000000 ) ) ;
#40 = DIRECTION ( 'NONE',  ( 0.000000000000000000, 0.000000000000000000, 1.000000000000000000 ) ) ;
#41 = FACE_OUTER_BOUND ( 'NONE', #139, .T. ) ;
#42 = FACE_OUTER_BOUND ( 'NONE', #69, .T. ) ;
#43 = CARTESIAN_POINT ( 'NONE',  ( 0.000000000000000000, 0.000000000000000000, 1.199999999999999956 ) ) ;
#44 = DIRECTION ( 'NONE',  ( 0.000000000000000000, 0.000000000000000000, 1.000000000000000000 ) ) ;
#45 = DIRECTION ( 'NONE',  ( 1.000000000000000000, 0.000000000000000000, -0.000000000000000000 ) ) ;
#46 = CALENDAR_DATE ( 2022, 20, 6 ) ;
#47 = CIRCLE ( 'NONE', #293, 0.6999999999999999556 ) ;
#48 = DIRECTION ( 'NONE',  ( -1.000000000000000000, 0.000000000000000000, 0.000000000000000000 ) ) ;
#49 = PERSON_AND_ORGANIZATION ( #28, #274 ) ;
#50 = ORIENTED_EDGE ( 'NONE', *, *, #101, .F. ) ;
#51 = APPROVAL_STATUS ( 'not_yet_approved' ) ;
#52 = UNCERTAINTY_MEASURE_WITH_UNIT (LENGTH_MEASURE( 1.000000000000000082E-05 ), #60, 'distance_accuracy_value', 'NONE');
#53 = VERTEX_POINT ( 'NONE', #163 ) ;
#54 = VERTEX_POINT ( 'NONE', #230 ) ;
#55 = ADVANCED_FACE ( 'NONE', ( #142 ), #175, .F. ) ;
#56 = ORIENTED_EDGE ( 'NONE', *, *, #247, .T. ) ;
#57 = EDGE_LOOP ( 'NONE', ( #160, #255 ) ) ;
#58 = CARTESIAN_POINT ( 'NONE',  ( 0.000000000000000000, 0.000000000000000000, 101.2000000000000171 ) ) ;
#59 = AXIS2_PLACEMENT_3D ( 'NONE', #300, #74, #172 ) ;
#60 =( LENGTH_UNIT ( ) NAMED_UNIT ( * ) SI_UNIT ( .MILLI., .METRE. ) );
#61 = DIRECTION ( 'NONE',  ( 1.000000000000000000, 0.000000000000000000, -0.000000000000000000 ) ) ;
#62 = DIRECTION ( 'NONE',  ( 0.000000000000000000, 0.000000000000000000, 1.000000000000000000 ) ) ;
#63 = COORDINATED_UNIVERSAL_TIME_OFFSET ( 1, 0, .AHEAD. ) ;
#64 = DIRECTION ( 'NONE',  ( 0.000000000000000000, 0.000000000000000000, 1.000000000000000000 ) ) ;
#65 = PERSON_AND_ORGANIZATION ( #28, #274 ) ;
#66 = CIRCLE ( 'NONE', #303, 0.5000000000000000000 ) ;
#67 = DIRECTION ( 'NONE',  ( 1.000000000000000000, 0.000000000000000000, 0.000000000000000000 ) ) ;
#68 = DIRECTION ( 'NONE',  ( 0.000000000000000000, 0.000000000000000000, -1.000000000000000000 ) ) ;
#69 = EDGE_LOOP ( 'NONE', ( #25, #203, #71, #77 ) ) ;
#70 = DATE_AND_TIME ( #244, #102 ) ;
#71 = ORIENTED_EDGE ( 'NONE', *, *, #294, .F. ) ;
#72 = VECTOR ( 'NONE', #290, 1000.000000000000000 ) ;
#73 = DESIGN_CONTEXT ( 'detailed design', #114, 'design' ) ;
#74 = DIRECTION ( 'NONE',  ( 0.000000000000000000, 0.000000000000000000, 1.000000000000000000 ) ) ;
#75 = ORIENTED_EDGE ( 'NONE', *, *, #257, .T. ) ;
#76 = EDGE_CURVE ( 'NONE', #78, #53, #194, .T. ) ;
#77 = ORIENTED_EDGE ( 'NONE', *, *, #205, .F. ) ;
#78 = VERTEX_POINT ( 'NONE', #263 ) ;
#79 = VECTOR ( 'NONE', #277, 1000.000000000000000 ) ;
#80 = SECURITY_CLASSIFICATION ( '', '', #195 ) ;
#81 = CARTESIAN_POINT ( 'NONE',  ( 0.000000000000000000, 0.000000000000000000, 1.199999999999999956 ) ) ;
#82 = ADVANCED_FACE ( 'NONE', ( #35 ), #103, .T. ) ;
#83 = AXIS2_PLACEMENT_3D ( 'NONE', #88, #62, #149 ) ;
#84 = CC_DESIGN_PERSON_AND_ORGANIZATION_ASSIGNMENT ( #222, #218, ( #220 ) ) ;
#85 = DIRECTION ( 'NONE',  ( -0.000000000000000000, -0.000000000000000000, -1.000000000000000000 ) ) ;
#86 = DIRECTION ( 'NONE',  ( 0.000000000000000000, 0.000000000000000000, 1.000000000000000000 ) ) ;
#87 = CARTESIAN_POINT ( 'NONE',  ( 0.000000000000000000, 0.000000000000000000, 0.000000000000000000 ) ) ;
#88 = CARTESIAN_POINT ( 'NONE',  ( 0.000000000000000000, 0.000000000000000000, 0.000000000000000000 ) ) ;
#89 = APPROVAL_ROLE ( '' ) ;
#90 = PERSON_AND_ORGANIZATION_ROLE ( 'creator' ) ;
#91 = APPROVAL_ROLE ( '' ) ;
#92 = CALENDAR_DATE ( 2022, 20, 6 ) ;
#93 = ORIENTED_EDGE ( 'NONE', *, *, #262, .T. ) ;
#94 = ORIENTED_EDGE ( 'NONE', *, *, #262, .F. ) ;
#95 = APPROVAL ( #276, 'NEURÈENÝ' ) ;
#96 = ORIENTED_EDGE ( 'NONE', *, *, #26, .F. ) ;
#97 = AXIS2_PLACEMENT_3D ( 'NONE', #167, #44, #98 ) ;
#98 = DIRECTION ( 'NONE',  ( 1.000000000000000000, 0.000000000000000000, 0.000000000000000000 ) ) ;
#99 = APPLICATION_CONTEXT ( 'configuration controlled 3d designs of mechanical parts and assemblies' ) ;
#100 = DIRECTION ( 'NONE',  ( -1.000000000000000000, 0.000000000000000000, 0.000000000000000000 ) ) ;
#101 = EDGE_CURVE ( 'NONE', #307, #282, #190, .T. ) ;
#102 = LOCAL_TIME ( 12, 29, 1.000000000000000000, #108 ) ;
#103 = CYLINDRICAL_SURFACE ( 'NONE', #157, 0.5000000000000000000 ) ;
#104 = DIRECTION ( 'NONE',  ( 1.000000000000000000, 0.000000000000000000, 0.000000000000000000 ) ) ;
#105 = AXIS2_PLACEMENT_3D ( 'NONE', #245, #152, #304 ) ;
#106 = FACE_BOUND ( 'NONE', #137, .T. ) ;
#107 = PERSON_AND_ORGANIZATION_ROLE ( 'classification_officer' ) ;
#108 = COORDINATED_UNIVERSAL_TIME_OFFSET ( 1, 0, .AHEAD. ) ;
#109 = PERSON_AND_ORGANIZATION ( #28, #274 ) ;
#110 = CC_DESIGN_APPROVAL ( #264, ( #80 ) ) ;
#111 = VERTEX_POINT ( 'NONE', #145 ) ;
#112 = CARTESIAN_POINT ( 'NONE',  ( 0.5000000000000000000, 6.123233995736766036E-17, 101.2000000000000171 ) ) ;
#113 = CC_DESIGN_PERSON_AND_ORGANIZATION_ASSIGNMENT ( #18, #154, ( #199 ) ) ;
#114 = APPLICATION_CONTEXT ( 'configuration controlled 3d designs of mechanical parts and assemblies' ) ;
#115 = ORIENTED_EDGE ( 'NONE', *, *, #257, .F. ) ;
#116 = EDGE_CURVE ( 'NONE', #78, #252, #37, .T. ) ;
#117 = AXIS2_PLACEMENT_3D ( 'NONE', #155, #177, #219 ) ;
#118 = EDGE_LOOP ( 'NONE', ( #34, #75 ) ) ;
#119 = ORIENTED_EDGE ( 'NONE', *, *, #224, .T. ) ;
#120 = PLANE ( 'NONE',  #121 ) ;
#121 = AXIS2_PLACEMENT_3D ( 'NONE', #81, #287, #61 ) ;
#122 = CARTESIAN_POINT ( 'NONE',  ( -0.6999999999999999556, 8.572527594031471957E-17, 1.399999999999998579 ) ) ;
#123 = CARTESIAN_POINT ( 'NONE',  ( -0.5000000000000000000, 0.000000000000000000, 101.2000000000000171 ) ) ;
#124 = ADVANCED_FACE ( 'NONE', ( #42 ), #216, .F. ) ;
#125 = VECTOR ( 'NONE', #143, 1000.000000000000000 ) ;
#126 = CARTESIAN_POINT ( 'NONE',  ( 0.000000000000000000, 0.000000000000000000, 1.199999999999999956 ) ) ;
#127 = DIRECTION ( 'NONE',  ( -0.000000000000000000, -0.000000000000000000, -1.000000000000000000 ) ) ;
#128 = FACE_OUTER_BOUND ( 'NONE', #118, .T. ) ;
#129 = CLOSED_SHELL ( 'NONE', ( #124, #82, #5, #269, #36, #198, #237, #2, #55 ) ) ;
#130 = LINE ( 'NONE', #279, #79 ) ;
#131 = DATE_AND_TIME ( #92, #288 ) ;
#132 = CARTESIAN_POINT ( 'NONE',  ( 0.000000000000000000, 0.000000000000000000, 101.2000000000000171 ) ) ;
#133 = APPLICATION_PROTOCOL_DEFINITION ( 'international standard', 'config_control_design', 1994, #114 ) ;
#134 = ORIENTED_EDGE ( 'NONE', *, *, #253, .T. ) ;
#135 = SHAPE_DEFINITION_REPRESENTATION ( #153, #144 ) ;
#136 = AXIS2_PLACEMENT_3D ( 'NONE', #270, #15, #104 ) ;
#137 = EDGE_LOOP ( 'NONE', ( #201, #182 ) ) ;
#138 = DIRECTION ( 'NONE',  ( -0.000000000000000000, -0.000000000000000000, -1.000000000000000000 ) ) ;
#139 = EDGE_LOOP ( 'NONE', ( #96, #50, #31, #280 ) ) ;
#140 = APPROVAL_PERSON_ORGANIZATION ( #49, #183, #151 ) ;
#141 = CC_DESIGN_PERSON_AND_ORGANIZATION_ASSIGNMENT ( #242, #107, ( #80 ) ) ;
#142 = FACE_OUTER_BOUND ( 'NONE', #161, .T. ) ;
#143 = DIRECTION ( 'NONE',  ( -0.000000000000000000, -0.000000000000000000, -1.000000000000000000 ) ) ;
#144 = ADVANCED_BREP_SHAPE_REPRESENTATION ( '9104', ( #211, #227 ), #146 ) ;
#145 = CARTESIAN_POINT ( 'NONE',  ( 0.6999999999999999556, 0.000000000000000000, 1.199999999999999289 ) ) ;
#146 =( GEOMETRIC_REPRESENTATION_CONTEXT ( 3 ) GLOBAL_UNCERTAINTY_ASSIGNED_CONTEXT ( ( #52 ) ) GLOBAL_UNIT_ASSIGNED_CONTEXT ( ( #60, #12, #168 ) ) REPRESENTATION_CONTEXT ( 'NONE', 'WORKASPACE' ) );
#147 = LOCAL_TIME ( 12, 29, 1.000000000000000000, #178 ) ;
#148 = DIRECTION ( 'NONE',  ( 1.000000000000000000, 0.000000000000000000, 0.000000000000000000 ) ) ;
#149 = DIRECTION ( 'NONE',  ( 1.000000000000000000, 0.000000000000000000, -0.000000000000000000 ) ) ;
#150 = AXIS2_PLACEMENT_3D ( 'NONE', #207, #169, #187 ) ;
#151 = APPROVAL_ROLE ( '' ) ;
#152 = DIRECTION ( 'NONE',  ( 0.000000000000000000, 0.000000000000000000, 1.000000000000000000 ) ) ;
#153 = PRODUCT_DEFINITION_SHAPE ( 'NONE', 'NONE',  #220 ) ;
#154 = PERSON_AND_ORGANIZATION_ROLE ( 'design_supplier' ) ;
#155 = CARTESIAN_POINT ( 'NONE',  ( 0.000000000000000000, 0.000000000000000000, 101.2000000000000171 ) ) ;
#156 = APPROVAL_DATE_TIME ( #278, #264 ) ;
#157 = AXIS2_PLACEMENT_3D ( 'NONE', #164, #127, #232 ) ;
#158 = APPROVAL_PERSON_ORGANIZATION ( #214, #95, #89 ) ;
#159 = ORIENTED_EDGE ( 'NONE', *, *, #76, .T. ) ;
#160 = ORIENTED_EDGE ( 'NONE', *, *, #283, .F. ) ;
#161 = EDGE_LOOP ( 'NONE', ( #223, #33, #185, #228 ) ) ;
#162 = AXIS2_PLACEMENT_3D ( 'NONE', #43, #85, #100 ) ;
#163 = CARTESIAN_POINT ( 'NONE',  ( 0.5000000000000000000, 6.123233995736766036E-17, 1.399999999999998579 ) ) ;
#164 = CARTESIAN_POINT ( 'NONE',  ( 0.000000000000000000, 0.000000000000000000, 101.2000000000000171 ) ) ;
#165 = AXIS2_PLACEMENT_3D ( 'NONE', #272, #64, #236 ) ;
#166 = CARTESIAN_POINT ( 'NONE',  ( 1.250000000000000000, 1.530808498934191571E-16, 1.199999999999999956 ) ) ;
#167 = CARTESIAN_POINT ( 'NONE',  ( 0.000000000000000000, 0.000000000000000000, 1.399999999999998579 ) ) ;
#168 =( NAMED_UNIT ( * ) SI_UNIT ( $, .STERADIAN. ) SOLID_ANGLE_UNIT ( ) );
#169 = DIRECTION ( 'NONE',  ( -0.000000000000000000, -0.000000000000000000, -1.000000000000000000 ) ) ;
#170 = PERSON_AND_ORGANIZATION ( #28, #274 ) ;
#171 = CALENDAR_DATE ( 2022, 20, 6 ) ;
#172 = DIRECTION ( 'NONE',  ( 1.000000000000000000, 0.000000000000000000, 0.000000000000000000 ) ) ;
#173 = COORDINATED_UNIVERSAL_TIME_OFFSET ( 1, 0, .AHEAD. ) ;
#174 = DIRECTION ( 'NONE',  ( 0.000000000000000000, -1.000000000000000000, 0.000000000000000000 ) ) ;
#175 = TOROIDAL_SURFACE ( 'NONE', #97, 0.6999999999999999556, 0.2000000000000000111 ) ;
#176 = DATE_AND_TIME ( #171, #22 ) ;
#177 = DIRECTION ( 'NONE',  ( 0.000000000000000000, 0.000000000000000000, 1.000000000000000000 ) ) ;
#178 = COORDINATED_UNIVERSAL_TIME_OFFSET ( 1, 0, .AHEAD. ) ;
#179 = EDGE_LOOP ( 'NONE', ( #56, #180 ) ) ;
#180 = ORIENTED_EDGE ( 'NONE', *, *, #231, .T. ) ;
#181 = CIRCLE ( 'NONE', #165, 1.250000000000000000 ) ;
#182 = ORIENTED_EDGE ( 'NONE', *, *, #292, .T. ) ;
#183 = APPROVAL ( #250, 'NEURÈENÝ' ) ;
#184 = ORIENTED_EDGE ( 'NONE', *, *, #231, .F. ) ;
#185 = ORIENTED_EDGE ( 'NONE', *, *, #205, .T. ) ;
#186 = CIRCLE ( 'NONE', #238, 1.250000000000000000 ) ;
#187 = DIRECTION ( 'NONE',  ( -1.000000000000000000, 0.000000000000000000, 0.000000000000000000 ) ) ;
#188 = CARTESIAN_POINT ( 'NONE',  ( 0.000000000000000000, 0.000000000000000000, 1.199999999999999956 ) ) ;
#189 = DIRECTION ( 'NONE',  ( -0.000000000000000000, -0.000000000000000000, -1.000000000000000000 ) ) ;
#190 = CIRCLE ( 'NONE', #212, 1.250000000000000000 ) ;
#191 = DIRECTION ( 'NONE',  ( -1.000000000000000000, 1.224646799147352714E-16, 0.000000000000000000 ) ) ;
#192 = DIRECTION ( 'NONE',  ( 1.000000000000000000, 0.000000000000000000, 0.000000000000000000 ) ) ;
#193 = PLANE ( 'NONE',  #83 ) ;
#194 = CIRCLE ( 'NONE', #266, 0.5000000000000000000 ) ;
#195 = SECURITY_CLASSIFICATION_LEVEL ( 'unclassified' ) ;
#196 = PRODUCT ( '9104', '9104', '', ( #299 ) ) ;
#197 = COORDINATED_UNIVERSAL_TIME_OFFSET ( 1, 0, .AHEAD. ) ;
#198 = ADVANCED_FACE ( 'NONE', ( #241 ), #193, .F. ) ;
#199 = PRODUCT_DEFINITION_FORMATION_WITH_SPECIFIED_SOURCE ( 'LIBOVOLNÝ', '', #196, .NOT_KNOWN. ) ;
#200 = CALENDAR_DATE ( 2022, 20, 6 ) ;
#201 = ORIENTED_EDGE ( 'NONE', *, *, #294, .T. ) ;
#202 = DIRECTION ( 'NONE',  ( 1.000000000000000000, 0.000000000000000000, 0.000000000000000000 ) ) ;
#203 = ORIENTED_EDGE ( 'NONE', *, *, #116, .T. ) ;
#204 = ORIENTED_EDGE ( 'NONE', *, *, #217, .T. ) ;
#205 = EDGE_CURVE ( 'NONE', #53, #111, #256, .T. ) ;
#206 = VERTEX_POINT ( 'NONE', #254 ) ;
#207 = CARTESIAN_POINT ( 'NONE',  ( 0.000000000000000000, 0.000000000000000000, 1.199999999999999956 ) ) ;
#208 = VECTOR ( 'NONE', #39, 1000.000000000000000 ) ;
#209 = CC_DESIGN_SECURITY_CLASSIFICATION ( #80, ( #199 ) ) ;
#210 = DIRECTION ( 'NONE',  ( 1.224646799147353207E-16, 1.000000000000000000, -0.000000000000000000 ) ) ;
#211 = MANIFOLD_SOLID_BREP ( 'Zaoblit1', #129 ) ;
#212 = AXIS2_PLACEMENT_3D ( 'NONE', #267, #8, #259 ) ;
#213 = DIRECTION ( 'NONE',  ( 0.000000000000000000, 0.000000000000000000, 1.000000000000000000 ) ) ;
#214 = PERSON_AND_ORGANIZATION ( #28, #274 ) ;
#215 = DIRECTION ( 'NONE',  ( 1.000000000000000000, 0.000000000000000000, 0.000000000000000000 ) ) ;
#216 = TOROIDAL_SURFACE ( 'NONE', #136, 0.6999999999999999556, 0.2000000000000000111 ) ;
#217 = EDGE_CURVE ( 'NONE', #206, #249, #233, .T. ) ;
#218 = PERSON_AND_ORGANIZATION_ROLE ( 'creator' ) ;
#219 = DIRECTION ( 'NONE',  ( 1.000000000000000000, 0.000000000000000000, 0.000000000000000000 ) ) ;
#220 = PRODUCT_DEFINITION ( 'NEZNÁMÝ', '', #199, #73 ) ;
#221 = VERTEX_POINT ( 'NONE', #112 ) ;
#222 = PERSON_AND_ORGANIZATION ( #28, #274 ) ;
#223 = ORIENTED_EDGE ( 'NONE', *, *, #116, .F. ) ;
#224 = EDGE_CURVE ( 'NONE', #221, #53, #130, .T. ) ;
#225 = EDGE_LOOP ( 'NONE', ( #226, #1, #93, #159 ) ) ;
#226 = ORIENTED_EDGE ( 'NONE', *, *, #224, .F. ) ;
#227 = AXIS2_PLACEMENT_3D ( 'NONE', #87, #296, #67 ) ;
#228 = ORIENTED_EDGE ( 'NONE', *, *, #292, .F. ) ;
#229 = CC_DESIGN_PERSON_AND_ORGANIZATION_ASSIGNMENT ( #109, #90, ( #199 ) ) ;
#230 = CARTESIAN_POINT ( 'NONE',  ( -0.5000000000000000000, 0.000000000000000000, 101.2000000000000171 ) ) ;
#231 = EDGE_CURVE ( 'NONE', #221, #54, #66, .T. ) ;
#232 = DIRECTION ( 'NONE',  ( -1.000000000000000000, 0.000000000000000000, 0.000000000000000000 ) ) ;
#233 = CIRCLE ( 'NONE', #105, 1.250000000000000000 ) ;
#234 = LINE ( 'NONE', #123, #208 ) ;
#235 = CC_DESIGN_APPROVAL ( #95, ( #199 ) ) ;
#236 = DIRECTION ( 'NONE',  ( 1.000000000000000000, 0.000000000000000000, 0.000000000000000000 ) ) ;
#237 = ADVANCED_FACE ( 'NONE', ( #29 ), #23, .T. ) ;
#238 = AXIS2_PLACEMENT_3D ( 'NONE', #265, #40, #14 ) ;
#239 = LOCAL_TIME ( 12, 29, 1.000000000000000000, #173 ) ;
#240 = LINE ( 'NONE', #13, #125 ) ;
#241 = FACE_OUTER_BOUND ( 'NONE', #57, .T. ) ;
#242 = PERSON_AND_ORGANIZATION ( #28, #274 ) ;
#243 = CARTESIAN_POINT ( 'NONE',  ( 0.6999999999999999556, 0.000000000000000000, 1.399999999999998579 ) ) ;
#244 = CALENDAR_DATE ( 2022, 20, 6 ) ;
#245 = CARTESIAN_POINT ( 'NONE',  ( 0.000000000000000000, 0.000000000000000000, 0.000000000000000000 ) ) ;
#246 = CC_DESIGN_DATE_AND_TIME_ASSIGNMENT ( #305, #273, ( #80 ) ) ;
#247 = EDGE_CURVE ( 'NONE', #54, #221, #260, .T. ) ;
#248 = CARTESIAN_POINT ( 'NONE',  ( -1.250000000000000000, 0.000000000000000000, 0.000000000000000000 ) ) ;
#249 = VERTEX_POINT ( 'NONE', #248 ) ;
#250 = APPROVAL_STATUS ( 'not_yet_approved' ) ;
#251 = CIRCLE ( 'NONE', #286, 0.6999999999999999556 ) ;
#252 = VERTEX_POINT ( 'NONE', #306 ) ;
#253 = EDGE_CURVE ( 'NONE', #53, #78, #3, .T. ) ;
#254 = CARTESIAN_POINT ( 'NONE',  ( 1.250000000000000000, 1.530808498934191571E-16, 0.000000000000000000 ) ) ;
#255 = ORIENTED_EDGE ( 'NONE', *, *, #217, .F. ) ;
#256 = CIRCLE ( 'NONE', #7, 0.2000000000000000944 ) ;
#257 = EDGE_CURVE ( 'NONE', #282, #307, #181, .T. ) ;
#258 = PLANE ( 'NONE',  #32 ) ;
#259 = DIRECTION ( 'NONE',  ( 1.000000000000000000, 0.000000000000000000, 0.000000000000000000 ) ) ;
#260 = CIRCLE ( 'NONE', #117, 0.5000000000000000000 ) ;
#261 = DIRECTION ( 'NONE',  ( -0.000000000000000000, -0.000000000000000000, -1.000000000000000000 ) ) ;
#262 = EDGE_CURVE ( 'NONE', #54, #78, #234, .T. ) ;
#263 = CARTESIAN_POINT ( 'NONE',  ( -0.5000000000000000000, 0.000000000000000000, 1.399999999999998579 ) ) ;
#264 = APPROVAL ( #51, 'NEURÈENÝ' ) ;
#265 = CARTESIAN_POINT ( 'NONE',  ( 0.000000000000000000, 0.000000000000000000, 0.000000000000000000 ) ) ;
#266 = AXIS2_PLACEMENT_3D ( 'NONE', #16, #86, #215 ) ;
#267 = CARTESIAN_POINT ( 'NONE',  ( 0.000000000000000000, 0.000000000000000000, 1.199999999999999956 ) ) ;
#268 = DATE_TIME_ROLE ( 'creation_date' ) ;
#269 = ADVANCED_FACE ( 'NONE', ( #41 ), #10, .T. ) ;
#270 = CARTESIAN_POINT ( 'NONE',  ( 0.000000000000000000, 0.000000000000000000, 1.399999999999998579 ) ) ;
#271 = APPLICATION_PROTOCOL_DEFINITION ( 'international standard', 'config_control_design', 1994, #99 ) ;
#272 = CARTESIAN_POINT ( 'NONE',  ( 0.000000000000000000, 0.000000000000000000, 1.199999999999999956 ) ) ;
#273 = DATE_TIME_ROLE ( 'classification_date' ) ;
#274 = ORGANIZATION ( 'NEURÈENÝ', 'NEURÈENÝ', '' ) ;
#275 = APPROVAL_PERSON_ORGANIZATION ( #65, #264, #91 ) ;
#276 = APPROVAL_STATUS ( 'not_yet_approved' ) ;
#277 = DIRECTION ( 'NONE',  ( -0.000000000000000000, -0.000000000000000000, -1.000000000000000000 ) ) ;
#278 = DATE_AND_TIME ( #46, #147 ) ;
#279 = CARTESIAN_POINT ( 'NONE',  ( 0.5000000000000000000, 6.123233995736766036E-17, 101.2000000000000171 ) ) ;
#280 = ORIENTED_EDGE ( 'NONE', *, *, #283, .T. ) ;
#281 = CC_DESIGN_DATE_AND_TIME_ASSIGNMENT ( #131, #268, ( #220 ) ) ;
#282 = VERTEX_POINT ( 'NONE', #166 ) ;
#283 = EDGE_CURVE ( 'NONE', #249, #206, #186, .T. ) ;
#284 = EDGE_LOOP ( 'NONE', ( #184, #119, #134, #94 ) ) ;
#285 = FACE_OUTER_BOUND ( 'NONE', #179, .T. ) ;
#286 = AXIS2_PLACEMENT_3D ( 'NONE', #126, #261, #148 ) ;
#287 = DIRECTION ( 'NONE',  ( 0.000000000000000000, 0.000000000000000000, 1.000000000000000000 ) ) ;
#288 = LOCAL_TIME ( 12, 29, 1.000000000000000000, #197 ) ;
#289 = LINE ( 'NONE', #298, #72 ) ;
#290 = DIRECTION ( 'NONE',  ( -0.000000000000000000, -0.000000000000000000, -1.000000000000000000 ) ) ;
#291 = CARTESIAN_POINT ( 'NONE',  ( -1.250000000000000000, 0.000000000000000000, 1.199999999999999956 ) ) ;
#292 = EDGE_CURVE ( 'NONE', #252, #111, #47, .T. ) ;
#293 = AXIS2_PLACEMENT_3D ( 'NONE', #188, #189, #192 ) ;
#294 = EDGE_CURVE ( 'NONE', #111, #252, #251, .T. ) ;
#295 = PRODUCT_RELATED_PRODUCT_CATEGORY ( 'detail', '', ( #196 ) ) ;
#296 = DIRECTION ( 'NONE',  ( 0.000000000000000000, 0.000000000000000000, 1.000000000000000000 ) ) ;
#297 = AXIS2_PLACEMENT_3D ( 'NONE', #122, #210, #191 ) ;
#298 = CARTESIAN_POINT ( 'NONE',  ( -1.250000000000000000, 0.000000000000000000, 1.199999999999999956 ) ) ;
#299 = MECHANICAL_CONTEXT ( 'NONE', #99, 'mechanical' ) ;
#300 = CARTESIAN_POINT ( 'NONE',  ( 0.000000000000000000, 0.000000000000000000, 1.399999999999998579 ) ) ;
#301 = APPROVAL_DATE_TIME ( #176, #183 ) ;
#302 = APPROVAL_DATE_TIME ( #70, #95 ) ;
#303 = AXIS2_PLACEMENT_3D ( 'NONE', #19, #21, #202 ) ;
#304 = DIRECTION ( 'NONE',  ( 1.000000000000000000, 0.000000000000000000, 0.000000000000000000 ) ) ;
#305 = DATE_AND_TIME ( #200, #239 ) ;
#306 = CARTESIAN_POINT ( 'NONE',  ( -0.6999999999999999556, 8.572527594031473190E-17, 1.199999999999999289 ) ) ;
#307 = VERTEX_POINT ( 'NONE', #291 ) ;
ENDSEC;
END-ISO-10303-21;
