ISO-10303-21;
HEADER;
FILE_DESCRIPTION (( 'STEP AP203' ),
    '1' );
FILE_NAME ('82d5.STEP',
    '2022-06-20T09:26:38',
    ( '' ),
    ( '' ),
    'SwSTEP 2.0',
    'SolidWorks 2019',
    '' );
FILE_SCHEMA (( 'CONFIG_CONTROL_DESIGN' ));
ENDSEC;

DATA;
#1 = ORIENTED_EDGE ( 'NONE', *, *, #240, .F. ) ;
#2 = CARTESIAN_POINT ( 'NONE',  ( 0.000000000000000000, 0.000000000000000000, 407.0000000000000000 ) ) ;
#3 = AXIS2_PLACEMENT_3D ( 'NONE', #7, #174, #166 ) ;
#4 = ADVANCED_FACE ( 'NONE', ( #81 ), #195, .T. ) ;
#5 = VERTEX_POINT ( 'NONE', #30 ) ;
#6 = DIRECTION ( 'NONE',  ( 1.000000000000000000, 0.000000000000000000, -0.000000000000000000 ) ) ;
#7 = CARTESIAN_POINT ( 'NONE',  ( 0.000000000000000000, 0.000000000000000000, 7.000000000000000000 ) ) ;
#8 = CIRCLE ( 'NONE', #302, 0.1999999999999996503 ) ;
#9 = DIRECTION ( 'NONE',  ( 0.000000000000000000, 0.000000000000000000, 1.000000000000000000 ) ) ;
#10 = APPROVAL ( #250, 'NEURÈENÝ' ) ;
#11 = AXIS2_PLACEMENT_3D ( 'NONE', #301, #252, #298 ) ;
#12 = DIRECTION ( 'NONE',  ( 0.000000000000000000, -1.000000000000000000, 0.000000000000000000 ) ) ;
#13 = LINE ( 'NONE', #35, #255 ) ;
#14 = ORIENTED_EDGE ( 'NONE', *, *, #240, .T. ) ;
#15 = EDGE_CURVE ( 'NONE', #5, #59, #8, .T. ) ;
#16 = DIRECTION ( 'NONE',  ( 1.000000000000000000, 0.000000000000000000, -0.000000000000000000 ) ) ;
#17 = PLANE ( 'NONE',  #291 ) ;
#18 = APPROVAL_ROLE ( '' ) ;
#19 = AXIS2_PLACEMENT_3D ( 'NONE', #150, #261, #33 ) ;
#20 = DATE_AND_TIME ( #257, #133 ) ;
#21 = DATE_AND_TIME ( #184, #221 ) ;
#22 = EDGE_CURVE ( 'NONE', #300, #160, #171, .T. ) ;
#23 = APPLICATION_PROTOCOL_DEFINITION ( 'international standard', 'config_control_design', 1994, #169 ) ;
#24 = ORIENTED_EDGE ( 'NONE', *, *, #191, .F. ) ;
#25 = AXIS2_PLACEMENT_3D ( 'NONE', #156, #85, #61 ) ;
#26 = LOCAL_TIME ( 11, 26, 38.00000000000000000, #139 ) ;
#27 = ORIENTED_EDGE ( 'NONE', *, *, #29, .F. ) ;
#28 = ORIENTED_EDGE ( 'NONE', *, *, #15, .T. ) ;
#29 = EDGE_CURVE ( 'NONE', #118, #67, #186, .T. ) ;
#30 = CARTESIAN_POINT ( 'NONE',  ( -7.000000000000000888, 0.000000000000000000, 7.199999999999984190 ) ) ;
#31 = CARTESIAN_POINT ( 'NONE',  ( -11.00000000000000000, 0.000000000000000000, 0.000000000000000000 ) ) ;
#32 = ADVANCED_BREP_SHAPE_REPRESENTATION ( '82d5', ( #231, #11 ), #211 ) ;
#33 = DIRECTION ( 'NONE',  ( 1.000000000000000000, 0.000000000000000000, 0.000000000000000000 ) ) ;
#34 = EDGE_CURVE ( 'NONE', #99, #118, #149, .T. ) ;
#35 = CARTESIAN_POINT ( 'NONE',  ( -11.00000000000000000, 0.000000000000000000, 7.000000000000000000 ) ) ;
#36 = DIRECTION ( 'NONE',  ( -0.000000000000000000, -0.000000000000000000, -1.000000000000000000 ) ) ;
#37 = CARTESIAN_POINT ( 'NONE',  ( 0.000000000000000000, 0.000000000000000000, 407.0000000000000000 ) ) ;
#38 = EDGE_CURVE ( 'NONE', #160, #300, #117, .T. ) ;
#39 = DIRECTION ( 'NONE',  ( 1.000000000000000000, 0.000000000000000000, 0.000000000000000000 ) ) ;
#40 = CARTESIAN_POINT ( 'NONE',  ( 0.000000000000000000, 0.000000000000000000, 7.000000000000000000 ) ) ;
#41 = CALENDAR_DATE ( 2022, 20, 6 ) ;
#42 = EDGE_CURVE ( 'NONE', #201, #59, #177, .T. ) ;
#43 = APPROVAL_STATUS ( 'not_yet_approved' ) ;
#44 = EDGE_LOOP ( 'NONE', ( #229, #46, #188, #251 ) ) ;
#45 = PERSON_AND_ORGANIZATION_ROLE ( 'design_owner' ) ;
#46 = ORIENTED_EDGE ( 'NONE', *, *, #89, .F. ) ;
#47 = AXIS2_PLACEMENT_3D ( 'NONE', #270, #132, #224 ) ;
#48 = LOCAL_TIME ( 11, 26, 38.00000000000000000, #228 ) ;
#49 = APPROVAL_DATE_TIME ( #254, #274 ) ;
#50 = APPLICATION_PROTOCOL_DEFINITION ( 'international standard', 'config_control_design', 1994, #279 ) ;
#51 = AXIS2_PLACEMENT_3D ( 'NONE', #265, #78, #262 ) ;
#52 = EDGE_LOOP ( 'NONE', ( #100, #276, #121, #14 ) ) ;
#53 = CC_DESIGN_DATE_AND_TIME_ASSIGNMENT ( #182, #275, ( #187 ) ) ;
#54 = DIRECTION ( 'NONE',  ( 1.000000000000000000, 0.000000000000000000, 0.000000000000000000 ) ) ;
#55 = ORIENTED_EDGE ( 'NONE', *, *, #226, .T. ) ;
#56 = VERTEX_POINT ( 'NONE', #213 ) ;
#57 = EDGE_LOOP ( 'NONE', ( #24, #237, #115, #256 ) ) ;
#58 = ADVANCED_FACE ( 'NONE', ( #80, #172 ), #278, .T. ) ;
#59 = VERTEX_POINT ( 'NONE', #214 ) ;
#60 = CARTESIAN_POINT ( 'NONE',  ( 0.000000000000000000, 0.000000000000000000, 7.000000000000000000 ) ) ;
#61 = DIRECTION ( 'NONE',  ( -1.000000000000000000, 0.000000000000000000, 0.000000000000000000 ) ) ;
#62 = CIRCLE ( 'NONE', #153, 11.00000000000000000 ) ;
#63 = DIRECTION ( 'NONE',  ( 1.000000000000000000, 0.000000000000000000, 0.000000000000000000 ) ) ;
#64 = UNCERTAINTY_MEASURE_WITH_UNIT (LENGTH_MEASURE( 1.000000000000000082E-05 ), #130, 'distance_accuracy_value', 'NONE');
#65 = CYLINDRICAL_SURFACE ( 'NONE', #25, 7.000000000000000888 ) ;
#66 = AXIS2_PLACEMENT_3D ( 'NONE', #40, #104, #88 ) ;
#67 = VERTEX_POINT ( 'NONE', #31 ) ;
#68 = PERSON_AND_ORGANIZATION ( #210, #95 ) ;
#69 = ORIENTED_EDGE ( 'NONE', *, *, #38, .F. ) ;
#70 = VECTOR ( 'NONE', #203, 1000.000000000000000 ) ;
#71 = MECHANICAL_CONTEXT ( 'NONE', #279, 'mechanical' ) ;
#72 = ORIENTED_EDGE ( 'NONE', *, *, #42, .T. ) ;
#73 = AXIS2_PLACEMENT_3D ( 'NONE', #60, #288, #272 ) ;
#74 = APPROVAL_ROLE ( '' ) ;
#75 = EDGE_LOOP ( 'NONE', ( #102, #236, #55, #101 ) ) ;
#76 = DIRECTION ( 'NONE',  ( 0.000000000000000000, 0.000000000000000000, 1.000000000000000000 ) ) ;
#77 = CIRCLE ( 'NONE', #73, 11.00000000000000000 ) ;
#78 = DIRECTION ( 'NONE',  ( -0.000000000000000000, -0.000000000000000000, -1.000000000000000000 ) ) ;
#79 = DIRECTION ( 'NONE',  ( 1.000000000000000000, 0.000000000000000000, 0.000000000000000000 ) ) ;
#80 = FACE_BOUND ( 'NONE', #192, .T. ) ;
#81 = FACE_OUTER_BOUND ( 'NONE', #52, .T. ) ;
#82 = CARTESIAN_POINT ( 'NONE',  ( 0.000000000000000000, 0.000000000000000000, 7.000000000000000000 ) ) ;
#83 = CC_DESIGN_PERSON_AND_ORGANIZATION_ASSIGNMENT ( #189, #111, ( #187 ) ) ;
#84 = CYLINDRICAL_SURFACE ( 'NONE', #281, 11.00000000000000000 ) ;
#85 = DIRECTION ( 'NONE',  ( -0.000000000000000000, -0.000000000000000000, -1.000000000000000000 ) ) ;
#86 = VERTEX_POINT ( 'NONE', #168 ) ;
#87 = DIRECTION ( 'NONE',  ( -0.000000000000000000, -0.000000000000000000, -1.000000000000000000 ) ) ;
#88 = DIRECTION ( 'NONE',  ( 1.000000000000000000, 0.000000000000000000, 0.000000000000000000 ) ) ;
#89 = EDGE_CURVE ( 'NONE', #86, #5, #219, .T. ) ;
#90 = PERSON_AND_ORGANIZATION ( #210, #95 ) ;
#91 = COORDINATED_UNIVERSAL_TIME_OFFSET ( 1, 0, .AHEAD. ) ;
#92 = EDGE_CURVE ( 'NONE', #5, #86, #122, .T. ) ;
#93 = PERSON_AND_ORGANIZATION ( #210, #95 ) ;
#94 = ORIENTED_EDGE ( 'NONE', *, *, #42, .F. ) ;
#95 = ORGANIZATION ( 'NEURÈENÝ', 'NEURÈENÝ', '' ) ;
#96 = COORDINATED_UNIVERSAL_TIME_OFFSET ( 1, 0, .AHEAD. ) ;
#97 = ORIENTED_EDGE ( 'NONE', *, *, #191, .T. ) ;
#98 = DIRECTION ( 'NONE',  ( 1.224646799147353207E-16, 1.000000000000000000, -0.000000000000000000 ) ) ;
#99 = VERTEX_POINT ( 'NONE', #283 ) ;
#100 = ORIENTED_EDGE ( 'NONE', *, *, #34, .F. ) ;
#101 = ORIENTED_EDGE ( 'NONE', *, *, #92, .T. ) ;
#102 = ORIENTED_EDGE ( 'NONE', *, *, #129, .F. ) ;
#103 = AXIS2_PLACEMENT_3D ( 'NONE', #37, #36, #128 ) ;
#104 = DIRECTION ( 'NONE',  ( 0.000000000000000000, 0.000000000000000000, 1.000000000000000000 ) ) ;
#105 = CC_DESIGN_SECURITY_CLASSIFICATION ( #246, ( #197 ) ) ;
#106 = DIRECTION ( 'NONE',  ( -0.000000000000000000, -0.000000000000000000, -1.000000000000000000 ) ) ;
#107 = CIRCLE ( 'NONE', #66, 11.00000000000000000 ) ;
#108 = CC_DESIGN_PERSON_AND_ORGANIZATION_ASSIGNMENT ( #230, #161, ( #197 ) ) ;
#109 = FACE_OUTER_BOUND ( 'NONE', #233, .T. ) ;
#110 = PERSON_AND_ORGANIZATION_ROLE ( 'creator' ) ;
#111 = PERSON_AND_ORGANIZATION_ROLE ( 'creator' ) ;
#112 = ORIENTED_EDGE ( 'NONE', *, *, #22, .T. ) ;
#113 = CIRCLE ( 'NONE', #196, 7.200000000000001066 ) ;
#114 = APPROVAL_DATE_TIME ( #134, #297 ) ;
#115 = ORIENTED_EDGE ( 'NONE', *, *, #29, .T. ) ;
#116 = CALENDAR_DATE ( 2022, 20, 6 ) ;
#117 = CIRCLE ( 'NONE', #157, 7.000000000000000888 ) ;
#118 = VERTEX_POINT ( 'NONE', #193 ) ;
#119 = LOCAL_TIME ( 11, 26, 38.00000000000000000, #96 ) ;
#120 = DIRECTION ( 'NONE',  ( 1.000000000000000000, 0.000000000000000000, 0.000000000000000000 ) ) ;
#121 = ORIENTED_EDGE ( 'NONE', *, *, #136, .T. ) ;
#122 = CIRCLE ( 'NONE', #163, 7.000000000000000888 ) ;
#123 = DIRECTION ( 'NONE',  ( 1.000000000000000000, 0.000000000000000000, 0.000000000000000000 ) ) ;
#124 = CC_DESIGN_APPROVAL ( #274, ( #246 ) ) ;
#125 = DIRECTION ( 'NONE',  ( 0.000000000000000000, 0.000000000000000000, 1.000000000000000000 ) ) ;
#126 = CARTESIAN_POINT ( 'NONE',  ( 0.000000000000000000, 0.000000000000000000, 7.199999999999984190 ) ) ;
#127 = CARTESIAN_POINT ( 'NONE',  ( -7.000000000000000888, 0.000000000000000000, 407.0000000000000000 ) ) ;
#128 = DIRECTION ( 'NONE',  ( -1.000000000000000000, 0.000000000000000000, 0.000000000000000000 ) ) ;
#129 = EDGE_CURVE ( 'NONE', #160, #86, #216, .T. ) ;
#130 =( LENGTH_UNIT ( ) NAMED_UNIT ( * ) SI_UNIT ( .MILLI., .METRE. ) );
#131 = DIRECTION ( 'NONE',  ( 0.000000000000000000, 0.000000000000000000, 1.000000000000000000 ) ) ;
#132 = DIRECTION ( 'NONE',  ( 0.000000000000000000, 0.000000000000000000, 1.000000000000000000 ) ) ;
#133 = LOCAL_TIME ( 11, 26, 38.00000000000000000, #91 ) ;
#134 = DATE_AND_TIME ( #41, #119 ) ;
#135 = APPROVAL_ROLE ( '' ) ;
#136 = EDGE_CURVE ( 'NONE', #56, #67, #13, .T. ) ;
#137 = EDGE_LOOP ( 'NONE', ( #277, #28, #94, #303 ) ) ;
#138 = CLOSED_SHELL ( 'NONE', ( #175, #306, #158, #4, #58, #235, #223, #263, #292 ) ) ;
#139 = COORDINATED_UNIVERSAL_TIME_OFFSET ( 1, 0, .AHEAD. ) ;
#140 = APPROVAL_PERSON_ORGANIZATION ( #90, #274, #135 ) ;
#141 = SHAPE_DEFINITION_REPRESENTATION ( #282, #32 ) ;
#142 = APPROVAL_STATUS ( 'not_yet_approved' ) ;
#143 = EDGE_CURVE ( 'NONE', #56, #99, #77, .T. ) ;
#144 = VECTOR ( 'NONE', #106, 1000.000000000000000 ) ;
#145 = DIRECTION ( 'NONE',  ( -0.000000000000000000, -0.000000000000000000, -1.000000000000000000 ) ) ;
#146 = CARTESIAN_POINT ( 'NONE',  ( 0.000000000000000000, 0.000000000000000000, 7.000000000000000000 ) ) ;
#147 = EDGE_CURVE ( 'NONE', #86, #201, #304, .T. ) ;
#148 = AXIS2_PLACEMENT_3D ( 'NONE', #2, #267, #120 ) ;
#149 = LINE ( 'NONE', #190, #181 ) ;
#150 = CARTESIAN_POINT ( 'NONE',  ( 0.000000000000000000, 0.000000000000000000, 7.199999999999984190 ) ) ;
#151 = FACE_OUTER_BOUND ( 'NONE', #75, .T. ) ;
#152 = CYLINDRICAL_SURFACE ( 'NONE', #103, 7.000000000000000888 ) ;
#153 = AXIS2_PLACEMENT_3D ( 'NONE', #225, #245, #39 ) ;
#154 = FACE_OUTER_BOUND ( 'NONE', #260, .T. ) ;
#155 = DIRECTION ( 'NONE',  ( 1.000000000000000000, 0.000000000000000000, 0.000000000000000000 ) ) ;
#156 = CARTESIAN_POINT ( 'NONE',  ( 0.000000000000000000, 0.000000000000000000, 407.0000000000000000 ) ) ;
#157 = AXIS2_PLACEMENT_3D ( 'NONE', #239, #280, #79 ) ;
#158 = ADVANCED_FACE ( 'NONE', ( #289 ), #84, .T. ) ;
#159 = PERSON_AND_ORGANIZATION_ROLE ( 'classification_officer' ) ;
#160 = VERTEX_POINT ( 'NONE', #200 ) ;
#161 = PERSON_AND_ORGANIZATION_ROLE ( 'design_supplier' ) ;
#162 = ORIENTED_EDGE ( 'NONE', *, *, #226, .F. ) ;
#163 = AXIS2_PLACEMENT_3D ( 'NONE', #126, #125, #123 ) ;
#164 = TOROIDAL_SURFACE ( 'NONE', #202, 7.200000000000001066, 0.2000000000000000111 ) ;
#165 = ORIENTED_EDGE ( 'NONE', *, *, #89, .T. ) ;
#166 = DIRECTION ( 'NONE',  ( -1.000000000000000000, 0.000000000000000000, 0.000000000000000000 ) ) ;
#167 = PRODUCT_RELATED_PRODUCT_CATEGORY ( 'detail', '', ( #185 ) ) ;
#168 = CARTESIAN_POINT ( 'NONE',  ( 7.000000000000000888, 8.572527594031474176E-16, 7.199999999999984190 ) ) ;
#169 = APPLICATION_CONTEXT ( 'configuration controlled 3d designs of mechanical parts and assemblies' ) ;
#170 = ORIENTED_EDGE ( 'NONE', *, *, #183, .T. ) ;
#171 = CIRCLE ( 'NONE', #148, 7.000000000000000888 ) ;
#172 = FACE_OUTER_BOUND ( 'NONE', #285, .T. ) ;
#173 = CC_DESIGN_APPROVAL ( #10, ( #187 ) ) ;
#174 = DIRECTION ( 'NONE',  ( -0.000000000000000000, -0.000000000000000000, -1.000000000000000000 ) ) ;
#175 = ADVANCED_FACE ( 'NONE', ( #222 ), #234, .F. ) ;
#176 = DIRECTION ( 'NONE',  ( -0.000000000000000000, -0.000000000000000000, -1.000000000000000000 ) ) ;
#177 = CIRCLE ( 'NONE', #51, 7.200000000000001066 ) ;
#178 = AXIS2_PLACEMENT_3D ( 'NONE', #271, #131, #155 ) ;
#179 = CARTESIAN_POINT ( 'NONE',  ( -7.000000000000000888, 0.000000000000000000, 407.0000000000000000 ) ) ;
#180 = DIRECTION ( 'NONE',  ( 0.000000000000000000, 0.000000000000000000, 1.000000000000000000 ) ) ;
#181 = VECTOR ( 'NONE', #145, 1000.000000000000000 ) ;
#182 = DATE_AND_TIME ( #116, #48 ) ;
#183 = EDGE_CURVE ( 'NONE', #59, #201, #113, .T. ) ;
#184 = CALENDAR_DATE ( 2022, 20, 6 ) ;
#185 = PRODUCT ( '82d5', '82d5', '', ( #71 ) ) ;
#186 = CIRCLE ( 'NONE', #264, 11.00000000000000000 ) ;
#187 = PRODUCT_DEFINITION ( 'NEZNÁMÝ', '', #197, #295 ) ;
#188 = ORIENTED_EDGE ( 'NONE', *, *, #147, .T. ) ;
#189 = PERSON_AND_ORGANIZATION ( #210, #95 ) ;
#190 = CARTESIAN_POINT ( 'NONE',  ( 11.00000000000000000, 1.347111479062088405E-15, 7.000000000000000000 ) ) ;
#191 = EDGE_CURVE ( 'NONE', #99, #56, #107, .T. ) ;
#192 = EDGE_LOOP ( 'NONE', ( #72, #170 ) ) ;
#193 = CARTESIAN_POINT ( 'NONE',  ( 11.00000000000000000, 1.347111479062088405E-15, 0.000000000000000000 ) ) ;
#194 = CARTESIAN_POINT ( 'NONE',  ( -7.200000000000001066, 8.817456953860944275E-16, 7.199999999999984190 ) ) ;
#195 = CYLINDRICAL_SURFACE ( 'NONE', #3, 11.00000000000000000 ) ;
#196 = AXIS2_PLACEMENT_3D ( 'NONE', #82, #176, #269 ) ;
#197 = PRODUCT_DEFINITION_FORMATION_WITH_SPECIFIED_SOURCE ( 'LIBOVOLNÝ', '', #185, .NOT_KNOWN. ) ;
#198 = PLANE ( 'NONE',  #47 ) ;
#199 = DIRECTION ( 'NONE',  ( -1.000000000000000000, 0.000000000000000000, 0.000000000000000000 ) ) ;
#200 = CARTESIAN_POINT ( 'NONE',  ( 7.000000000000000888, 8.572527594031474176E-16, 407.0000000000000000 ) ) ;
#201 = VERTEX_POINT ( 'NONE', #248 ) ;
#202 = AXIS2_PLACEMENT_3D ( 'NONE', #220, #9, #63 ) ;
#203 = DIRECTION ( 'NONE',  ( -0.000000000000000000, -0.000000000000000000, -1.000000000000000000 ) ) ;
#204 = DIRECTION ( 'NONE',  ( -0.000000000000000000, -0.000000000000000000, -1.000000000000000000 ) ) ;
#205 = SECURITY_CLASSIFICATION_LEVEL ( 'unclassified' ) ;
#206 = PERSON_AND_ORGANIZATION ( #210, #95 ) ;
#207 = ORIENTED_EDGE ( 'NONE', *, *, #129, .T. ) ;
#208 = COORDINATED_UNIVERSAL_TIME_OFFSET ( 1, 0, .AHEAD. ) ;
#209 =( NAMED_UNIT ( * ) PLANE_ANGLE_UNIT ( ) SI_UNIT ( $, .RADIAN. ) );
#210 = PERSON ( 'NEURÈENÝ', 'NEURÈENÝ', 'NEURÈENÝ', ('NEURÈENÝ'), ('NEURÈENÝ'), ('NEURÈENÝ') ) ;
#211 =( GEOMETRIC_REPRESENTATION_CONTEXT ( 3 ) GLOBAL_UNCERTAINTY_ASSIGNED_CONTEXT ( ( #64 ) ) GLOBAL_UNIT_ASSIGNED_CONTEXT ( ( #130, #209, #232 ) ) REPRESENTATION_CONTEXT ( 'NONE', 'WORKASPACE' ) );
#212 = CARTESIAN_POINT ( 'NONE',  ( 0.000000000000000000, 0.000000000000000000, 0.000000000000000000 ) ) ;
#213 = CARTESIAN_POINT ( 'NONE',  ( -11.00000000000000000, 0.000000000000000000, 7.000000000000000000 ) ) ;
#214 = CARTESIAN_POINT ( 'NONE',  ( -7.200000000000001066, 8.817456953860944275E-16, 6.999999999999992006 ) ) ;
#215 = APPROVAL_PERSON_ORGANIZATION ( #68, #297, #18 ) ;
#216 = LINE ( 'NONE', #218, #70 ) ;
#217 = CC_DESIGN_PERSON_AND_ORGANIZATION_ASSIGNMENT ( #227, #110, ( #197 ) ) ;
#218 = CARTESIAN_POINT ( 'NONE',  ( 7.000000000000000888, 8.572527594031474176E-16, 407.0000000000000000 ) ) ;
#219 = CIRCLE ( 'NONE', #19, 7.000000000000000888 ) ;
#220 = CARTESIAN_POINT ( 'NONE',  ( 0.000000000000000000, 0.000000000000000000, 7.199999999999984190 ) ) ;
#221 = LOCAL_TIME ( 11, 26, 38.00000000000000000, #208 ) ;
#222 = FACE_OUTER_BOUND ( 'NONE', #137, .T. ) ;
#223 = ADVANCED_FACE ( 'NONE', ( #151 ), #65, .T. ) ;
#224 = DIRECTION ( 'NONE',  ( 1.000000000000000000, 0.000000000000000000, -0.000000000000000000 ) ) ;
#225 = CARTESIAN_POINT ( 'NONE',  ( 0.000000000000000000, 0.000000000000000000, 0.000000000000000000 ) ) ;
#226 = EDGE_CURVE ( 'NONE', #300, #5, #247, .T. ) ;
#227 = PERSON_AND_ORGANIZATION ( #210, #95 ) ;
#228 = COORDINATED_UNIVERSAL_TIME_OFFSET ( 1, 0, .AHEAD. ) ;
#229 = ORIENTED_EDGE ( 'NONE', *, *, #15, .F. ) ;
#230 = PERSON_AND_ORGANIZATION ( #210, #95 ) ;
#231 = MANIFOLD_SOLID_BREP ( 'Zaoblit1', #138 ) ;
#232 =( NAMED_UNIT ( * ) SI_UNIT ( $, .STERADIAN. ) SOLID_ANGLE_UNIT ( ) );
#233 = EDGE_LOOP ( 'NONE', ( #1, #27 ) ) ;
#234 = TOROIDAL_SURFACE ( 'NONE', #178, 7.200000000000001066, 0.2000000000000000111 ) ;
#235 = ADVANCED_FACE ( 'NONE', ( #109 ), #198, .F. ) ;
#236 = ORIENTED_EDGE ( 'NONE', *, *, #22, .F. ) ;
#237 = ORIENTED_EDGE ( 'NONE', *, *, #34, .T. ) ;
#238 = AXIS2_PLACEMENT_3D ( 'NONE', #146, #76, #6 ) ;
#239 = CARTESIAN_POINT ( 'NONE',  ( 0.000000000000000000, 0.000000000000000000, 407.0000000000000000 ) ) ;
#240 = EDGE_CURVE ( 'NONE', #67, #118, #62, .T. ) ;
#241 = AXIS2_PLACEMENT_3D ( 'NONE', #294, #12, #293 ) ;
#242 = DIRECTION ( 'NONE',  ( -1.000000000000000000, 1.224646799147358384E-16, 0.000000000000000000 ) ) ;
#243 = FACE_OUTER_BOUND ( 'NONE', #44, .T. ) ;
#244 = CC_DESIGN_PERSON_AND_ORGANIZATION_ASSIGNMENT ( #273, #159, ( #246 ) ) ;
#245 = DIRECTION ( 'NONE',  ( 0.000000000000000000, 0.000000000000000000, 1.000000000000000000 ) ) ;
#246 = SECURITY_CLASSIFICATION ( '', '', #205 ) ;
#247 = LINE ( 'NONE', #179, #144 ) ;
#248 = CARTESIAN_POINT ( 'NONE',  ( 7.200000000000001066, 0.000000000000000000, 6.999999999999992006 ) ) ;
#249 = CARTESIAN_POINT ( 'NONE',  ( 0.000000000000000000, 0.000000000000000000, 7.000000000000000000 ) ) ;
#250 = APPROVAL_STATUS ( 'not_yet_approved' ) ;
#251 = ORIENTED_EDGE ( 'NONE', *, *, #183, .F. ) ;
#252 = DIRECTION ( 'NONE',  ( 0.000000000000000000, 0.000000000000000000, 1.000000000000000000 ) ) ;
#253 = CC_DESIGN_PERSON_AND_ORGANIZATION_ASSIGNMENT ( #93, #45, ( #185 ) ) ;
#254 = DATE_AND_TIME ( #299, #26 ) ;
#255 = VECTOR ( 'NONE', #204, 1000.000000000000000 ) ;
#256 = ORIENTED_EDGE ( 'NONE', *, *, #136, .F. ) ;
#257 = CALENDAR_DATE ( 2022, 20, 6 ) ;
#258 = ORIENTED_EDGE ( 'NONE', *, *, #38, .T. ) ;
#259 = CC_DESIGN_DATE_AND_TIME_ASSIGNMENT ( #21, #296, ( #246 ) ) ;
#260 = EDGE_LOOP ( 'NONE', ( #112, #258 ) ) ;
#261 = DIRECTION ( 'NONE',  ( 0.000000000000000000, 0.000000000000000000, 1.000000000000000000 ) ) ;
#262 = DIRECTION ( 'NONE',  ( 1.000000000000000000, 0.000000000000000000, 0.000000000000000000 ) ) ;
#263 = ADVANCED_FACE ( 'NONE', ( #154 ), #17, .T. ) ;
#264 = AXIS2_PLACEMENT_3D ( 'NONE', #212, #284, #54 ) ;
#265 = CARTESIAN_POINT ( 'NONE',  ( 0.000000000000000000, 0.000000000000000000, 7.000000000000000000 ) ) ;
#266 = APPROVAL_PERSON_ORGANIZATION ( #206, #10, #74 ) ;
#267 = DIRECTION ( 'NONE',  ( 0.000000000000000000, 0.000000000000000000, 1.000000000000000000 ) ) ;
#268 = CARTESIAN_POINT ( 'NONE',  ( 0.000000000000000000, 0.000000000000000000, 407.0000000000000000 ) ) ;
#269 = DIRECTION ( 'NONE',  ( 1.000000000000000000, 0.000000000000000000, 0.000000000000000000 ) ) ;
#270 = CARTESIAN_POINT ( 'NONE',  ( 0.000000000000000000, 0.000000000000000000, 0.000000000000000000 ) ) ;
#271 = CARTESIAN_POINT ( 'NONE',  ( 0.000000000000000000, 0.000000000000000000, 7.199999999999984190 ) ) ;
#272 = DIRECTION ( 'NONE',  ( 1.000000000000000000, 0.000000000000000000, 0.000000000000000000 ) ) ;
#273 = PERSON_AND_ORGANIZATION ( #210, #95 ) ;
#274 = APPROVAL ( #43, 'NEURÈENÝ' ) ;
#275 = DATE_TIME_ROLE ( 'creation_date' ) ;
#276 = ORIENTED_EDGE ( 'NONE', *, *, #143, .F. ) ;
#277 = ORIENTED_EDGE ( 'NONE', *, *, #92, .F. ) ;
#278 = PLANE ( 'NONE',  #238 ) ;
#279 = APPLICATION_CONTEXT ( 'configuration controlled 3d designs of mechanical parts and assemblies' ) ;
#280 = DIRECTION ( 'NONE',  ( 0.000000000000000000, 0.000000000000000000, 1.000000000000000000 ) ) ;
#281 = AXIS2_PLACEMENT_3D ( 'NONE', #249, #87, #199 ) ;
#282 = PRODUCT_DEFINITION_SHAPE ( 'NONE', 'NONE',  #187 ) ;
#283 = CARTESIAN_POINT ( 'NONE',  ( 11.00000000000000000, 1.347111479062088405E-15, 7.000000000000000000 ) ) ;
#284 = DIRECTION ( 'NONE',  ( 0.000000000000000000, 0.000000000000000000, 1.000000000000000000 ) ) ;
#285 = EDGE_LOOP ( 'NONE', ( #290, #97 ) ) ;
#286 = CC_DESIGN_APPROVAL ( #297, ( #197 ) ) ;
#287 = FACE_OUTER_BOUND ( 'NONE', #307, .T. ) ;
#288 = DIRECTION ( 'NONE',  ( 0.000000000000000000, 0.000000000000000000, 1.000000000000000000 ) ) ;
#289 = FACE_OUTER_BOUND ( 'NONE', #57, .T. ) ;
#290 = ORIENTED_EDGE ( 'NONE', *, *, #143, .T. ) ;
#291 = AXIS2_PLACEMENT_3D ( 'NONE', #268, #180, #16 ) ;
#292 = ADVANCED_FACE ( 'NONE', ( #243 ), #164, .F. ) ;
#293 = DIRECTION ( 'NONE',  ( 0.000000000000000000, 0.000000000000000000, -1.000000000000000000 ) ) ;
#294 = CARTESIAN_POINT ( 'NONE',  ( 7.200000000000001066, 0.000000000000000000, 7.199999999999984190 ) ) ;
#295 = DESIGN_CONTEXT ( 'detailed design', #169, 'design' ) ;
#296 = DATE_TIME_ROLE ( 'classification_date' ) ;
#297 = APPROVAL ( #142, 'NEURÈENÝ' ) ;
#298 = DIRECTION ( 'NONE',  ( 1.000000000000000000, 0.000000000000000000, 0.000000000000000000 ) ) ;
#299 = CALENDAR_DATE ( 2022, 20, 6 ) ;
#300 = VERTEX_POINT ( 'NONE', #127 ) ;
#301 = CARTESIAN_POINT ( 'NONE',  ( 0.000000000000000000, 0.000000000000000000, 0.000000000000000000 ) ) ;
#302 = AXIS2_PLACEMENT_3D ( 'NONE', #194, #98, #242 ) ;
#303 = ORIENTED_EDGE ( 'NONE', *, *, #147, .F. ) ;
#304 = CIRCLE ( 'NONE', #241, 0.1999999999999996503 ) ;
#305 = APPROVAL_DATE_TIME ( #20, #10 ) ;
#306 = ADVANCED_FACE ( 'NONE', ( #287 ), #152, .T. ) ;
#307 = EDGE_LOOP ( 'NONE', ( #69, #207, #165, #162 ) ) ;
ENDSEC;
END-ISO-10303-21;
