ISO-10303-21;
HEADER;
FILE_DESCRIPTION (( 'STEP AP203' ),
    '1' );
FILE_NAME ('f665.STEP',
    '2022-06-20T09:49:37',
    ( '' ),
    ( '' ),
    'SwSTEP 2.0',
    'SolidWorks 2019',
    '' );
FILE_SCHEMA (( 'CONFIG_CONTROL_DESIGN' ));
ENDSEC;

DATA;
#1 = APPROVAL_DATE_TIME ( #126, #286 ) ;
#2 = ORIENTED_EDGE ( 'NONE', *, *, #298, .F. ) ;
#3 = PRODUCT_DEFINITION ( 'NEZNÁMÝ', '', #172, #218 ) ;
#4 = DATE_AND_TIME ( #127, #31 ) ;
#5 = AXIS2_PLACEMENT_3D ( 'NONE', #217, #283, #194 ) ;
#6 = APPLICATION_PROTOCOL_DEFINITION ( 'international standard', 'config_control_design', 1994, #59 ) ;
#7 = CARTESIAN_POINT ( 'NONE',  ( 0.000000000000000000, 0.000000000000000000, 0.000000000000000000 ) ) ;
#8 = EDGE_LOOP ( 'NONE', ( #242, #78, #147, #55 ) ) ;
#9 = EDGE_LOOP ( 'NONE', ( #260, #108, #268, #131 ) ) ;
#10 = CIRCLE ( 'NONE', #129, 0.1999999999999996503 ) ;
#11 = ADVANCED_FACE ( 'NONE', ( #293 ), #12, .F. ) ;
#12 = PLANE ( 'NONE',  #90 ) ;
#13 = TOROIDAL_SURFACE ( 'NONE', #212, 4.200000000000000178, 0.2000000000000000111 ) ;
#14 = LOCAL_TIME ( 11, 49, 37.00000000000000000, #245 ) ;
#15 = AXIS2_PLACEMENT_3D ( 'NONE', #50, #144, #26 ) ;
#16 = DATE_TIME_ROLE ( 'classification_date' ) ;
#17 = FACE_BOUND ( 'NONE', #224, .T. ) ;
#18 = CARTESIAN_POINT ( 'NONE',  ( 0.000000000000000000, 0.000000000000000000, 5.000000000000000000 ) ) ;
#19 = CARTESIAN_POINT ( 'NONE',  ( -7.000000000000000000, 0.000000000000000000, 0.000000000000000000 ) ) ;
#20 = MANIFOLD_SOLID_BREP ( 'Zaoblit1', #60 ) ;
#21 = APPROVAL_PERSON_ORGANIZATION ( #33, #286, #146 ) ;
#22 = DIRECTION ( 'NONE',  ( -0.000000000000000000, -0.000000000000000000, -1.000000000000000000 ) ) ;
#23 = FACE_OUTER_BOUND ( 'NONE', #150, .T. ) ;
#24 = EDGE_CURVE ( 'NONE', #136, #282, #289, .T. ) ;
#25 = FACE_OUTER_BOUND ( 'NONE', #198, .T. ) ;
#26 = DIRECTION ( 'NONE',  ( 1.000000000000000000, 0.000000000000000000, 0.000000000000000000 ) ) ;
#27 = ADVANCED_FACE ( 'NONE', ( #157 ), #295, .T. ) ;
#28 = AXIS2_PLACEMENT_3D ( 'NONE', #83, #202, #85 ) ;
#29 = CARTESIAN_POINT ( 'NONE',  ( 7.000000000000000000, 8.572527594031473190E-16, 5.000000000000000000 ) ) ;
#30 = ORIENTED_EDGE ( 'NONE', *, *, #306, .F. ) ;
#31 = LOCAL_TIME ( 11, 49, 37.00000000000000000, #54 ) ;
#32 =( NAMED_UNIT ( * ) SI_UNIT ( $, .STERADIAN. ) SOLID_ANGLE_UNIT ( ) );
#33 = PERSON_AND_ORGANIZATION ( #206, #52 ) ;
#34 = UNCERTAINTY_MEASURE_WITH_UNIT (LENGTH_MEASURE( 1.000000000000000082E-05 ), #258, 'distance_accuracy_value', 'NONE');
#35 = ORIENTED_EDGE ( 'NONE', *, *, #240, .T. ) ;
#36 = AXIS2_PLACEMENT_3D ( 'NONE', #141, #22, #307 ) ;
#37 = EDGE_LOOP ( 'NONE', ( #76, #158 ) ) ;
#38 = EDGE_CURVE ( 'NONE', #138, #182, #246, .T. ) ;
#39 = PERSON_AND_ORGANIZATION ( #206, #52 ) ;
#40 = ORIENTED_EDGE ( 'NONE', *, *, #252, .T. ) ;
#41 = PRODUCT_RELATED_PRODUCT_CATEGORY ( 'detail', '', ( #92 ) ) ;
#42 = CARTESIAN_POINT ( 'NONE',  ( -4.000000000000000000, 0.000000000000000000, 130.0000000000000000 ) ) ;
#43 = VERTEX_POINT ( 'NONE', #264 ) ;
#44 = DIRECTION ( 'NONE',  ( 1.000000000000000000, 0.000000000000000000, 0.000000000000000000 ) ) ;
#45 = ADVANCED_FACE ( 'NONE', ( #17, #207 ), #266, .T. ) ;
#46 = CARTESIAN_POINT ( 'NONE',  ( 0.000000000000000000, 0.000000000000000000, 130.0000000000000000 ) ) ;
#47 = CYLINDRICAL_SURFACE ( 'NONE', #36, 7.000000000000000000 ) ;
#48 = PRODUCT_DEFINITION_SHAPE ( 'NONE', 'NONE',  #3 ) ;
#49 = CARTESIAN_POINT ( 'NONE',  ( 0.000000000000000000, 0.000000000000000000, 130.0000000000000000 ) ) ;
#50 = CARTESIAN_POINT ( 'NONE',  ( 0.000000000000000000, 0.000000000000000000, 5.000000000000000000 ) ) ;
#51 = DIRECTION ( 'NONE',  ( -0.000000000000000000, -0.000000000000000000, -1.000000000000000000 ) ) ;
#52 = ORGANIZATION ( 'NEURÈENÝ', 'NEURÈENÝ', '' ) ;
#53 = CC_DESIGN_PERSON_AND_ORGANIZATION_ASSIGNMENT ( #248, #292, ( #172 ) ) ;
#54 = COORDINATED_UNIVERSAL_TIME_OFFSET ( 1, 0, .AHEAD. ) ;
#55 = ORIENTED_EDGE ( 'NONE', *, *, #57, .T. ) ;
#56 = LINE ( 'NONE', #29, #99 ) ;
#57 = EDGE_CURVE ( 'NONE', #182, #102, #70, .T. ) ;
#58 =( NAMED_UNIT ( * ) PLANE_ANGLE_UNIT ( ) SI_UNIT ( $, .RADIAN. ) );
#59 = APPLICATION_CONTEXT ( 'configuration controlled 3d designs of mechanical parts and assemblies' ) ;
#60 = CLOSED_SHELL ( 'NONE', ( #119, #165, #174, #228, #45, #11, #88, #27, #115 ) ) ;
#61 = DATE_AND_TIME ( #287, #14 ) ;
#62 = EDGE_LOOP ( 'NONE', ( #226, #135 ) ) ;
#63 = CARTESIAN_POINT ( 'NONE',  ( 4.200000000000000178, 0.000000000000000000, 5.199999999999996625 ) ) ;
#64 = DIRECTION ( 'NONE',  ( 0.000000000000000000, 0.000000000000000000, 1.000000000000000000 ) ) ;
#65 = AXIS2_PLACEMENT_3D ( 'NONE', #18, #297, #116 ) ;
#66 = ORIENTED_EDGE ( 'NONE', *, *, #140, .T. ) ;
#67 = APPROVAL_PERSON_ORGANIZATION ( #193, #106, #74 ) ;
#68 = DIRECTION ( 'NONE',  ( 1.000000000000000000, 0.000000000000000000, 0.000000000000000000 ) ) ;
#69 = DIRECTION ( 'NONE',  ( -0.000000000000000000, -0.000000000000000000, -1.000000000000000000 ) ) ;
#70 = CIRCLE ( 'NONE', #199, 4.000000000000000000 ) ;
#71 = CARTESIAN_POINT ( 'NONE',  ( 0.000000000000000000, 0.000000000000000000, 5.199999999999996625 ) ) ;
#72 = DIRECTION ( 'NONE',  ( 0.000000000000000000, 0.000000000000000000, 1.000000000000000000 ) ) ;
#73 = COORDINATED_UNIVERSAL_TIME_OFFSET ( 1, 0, .AHEAD. ) ;
#74 = APPROVAL_ROLE ( '' ) ;
#75 = DIRECTION ( 'NONE',  ( 1.000000000000000000, 0.000000000000000000, 0.000000000000000000 ) ) ;
#76 = ORIENTED_EDGE ( 'NONE', *, *, #294, .F. ) ;
#77 = CC_DESIGN_PERSON_AND_ORGANIZATION_ASSIGNMENT ( #241, #238, ( #92 ) ) ;
#78 = ORIENTED_EDGE ( 'NONE', *, *, #143, .F. ) ;
#79 = CALENDAR_DATE ( 2022, 20, 6 ) ;
#80 = ORIENTED_EDGE ( 'NONE', *, *, #84, .F. ) ;
#81 = VECTOR ( 'NONE', #166, 1000.000000000000000 ) ;
#82 = CARTESIAN_POINT ( 'NONE',  ( 0.000000000000000000, 0.000000000000000000, 0.000000000000000000 ) ) ;
#83 = CARTESIAN_POINT ( 'NONE',  ( 0.000000000000000000, 0.000000000000000000, 130.0000000000000000 ) ) ;
#84 = EDGE_CURVE ( 'NONE', #102, #284, #10, .T. ) ;
#85 = DIRECTION ( 'NONE',  ( 1.000000000000000000, 0.000000000000000000, -0.000000000000000000 ) ) ;
#86 = AXIS2_PLACEMENT_3D ( 'NONE', #259, #262, #75 ) ;
#87 = CARTESIAN_POINT ( 'NONE',  ( 0.000000000000000000, 0.000000000000000000, 5.000000000000000000 ) ) ;
#88 = ADVANCED_FACE ( 'NONE', ( #91 ), #213, .T. ) ;
#89 = CARTESIAN_POINT ( 'NONE',  ( -4.200000000000000178, 5.143516556418882928E-16, 5.199999999999996625 ) ) ;
#90 = AXIS2_PLACEMENT_3D ( 'NONE', #82, #176, #179 ) ;
#91 = FACE_OUTER_BOUND ( 'NONE', #8, .T. ) ;
#92 = PRODUCT ( 'f665', 'f665', '', ( #214 ) ) ;
#93 = ADVANCED_BREP_SHAPE_REPRESENTATION ( 'f665', ( #20, #291 ), #230 ) ;
#94 = CARTESIAN_POINT ( 'NONE',  ( 0.000000000000000000, 0.000000000000000000, 130.0000000000000000 ) ) ;
#95 = DIRECTION ( 'NONE',  ( 0.000000000000000000, 0.000000000000000000, -1.000000000000000000 ) ) ;
#96 = EDGE_CURVE ( 'NONE', #102, #182, #237, .T. ) ;
#97 = CARTESIAN_POINT ( 'NONE',  ( -7.000000000000000000, 0.000000000000000000, 5.000000000000000000 ) ) ;
#98 = DATE_TIME_ROLE ( 'creation_date' ) ;
#99 = VECTOR ( 'NONE', #128, 1000.000000000000000 ) ;
#100 = APPLICATION_PROTOCOL_DEFINITION ( 'international standard', 'config_control_design', 1994, #125 ) ;
#101 = EDGE_CURVE ( 'NONE', #269, #133, #274, .T. ) ;
#102 = VERTEX_POINT ( 'NONE', #210 ) ;
#103 = EDGE_LOOP ( 'NONE', ( #173, #205, #169, #249 ) ) ;
#104 = DIRECTION ( 'NONE',  ( 0.000000000000000000, 0.000000000000000000, 1.000000000000000000 ) ) ;
#105 = CIRCLE ( 'NONE', #234, 7.000000000000000000 ) ;
#106 = APPROVAL ( #281, 'NEURÈENÝ' ) ;
#107 = SECURITY_CLASSIFICATION_LEVEL ( 'unclassified' ) ;
#108 = ORIENTED_EDGE ( 'NONE', *, *, #96, .F. ) ;
#109 = AXIS2_PLACEMENT_3D ( 'NONE', #161, #256, #208 ) ;
#110 = DIRECTION ( 'NONE',  ( 1.000000000000000000, 0.000000000000000000, 0.000000000000000000 ) ) ;
#111 = APPROVAL_DATE_TIME ( #156, #106 ) ;
#112 = VERTEX_POINT ( 'NONE', #229 ) ;
#113 = LOCAL_TIME ( 11, 49, 37.00000000000000000, #285 ) ;
#114 = CARTESIAN_POINT ( 'NONE',  ( 0.000000000000000000, 0.000000000000000000, 5.199999999999996625 ) ) ;
#115 = ADVANCED_FACE ( 'NONE', ( #191 ), #170, .F. ) ;
#116 = DIRECTION ( 'NONE',  ( 1.000000000000000000, 0.000000000000000000, -0.000000000000000000 ) ) ;
#117 = DIRECTION ( 'NONE',  ( -0.000000000000000000, -0.000000000000000000, -1.000000000000000000 ) ) ;
#118 = AXIS2_PLACEMENT_3D ( 'NONE', #89, #124, #255 ) ;
#119 = ADVANCED_FACE ( 'NONE', ( #23 ), #13, .F. ) ;
#120 = CARTESIAN_POINT ( 'NONE',  ( 0.000000000000000000, 0.000000000000000000, 5.199999999999996625 ) ) ;
#121 = DIRECTION ( 'NONE',  ( 1.000000000000000000, 0.000000000000000000, 0.000000000000000000 ) ) ;
#122 = DIRECTION ( 'NONE',  ( 1.000000000000000000, 0.000000000000000000, 0.000000000000000000 ) ) ;
#123 = APPROVAL_PERSON_ORGANIZATION ( #201, #168, #181 ) ;
#124 = DIRECTION ( 'NONE',  ( 1.224646799147353207E-16, 1.000000000000000000, -0.000000000000000000 ) ) ;
#125 = APPLICATION_CONTEXT ( 'configuration controlled 3d designs of mechanical parts and assemblies' ) ;
#126 = DATE_AND_TIME ( #235, #219 ) ;
#127 = CALENDAR_DATE ( 2022, 20, 6 ) ;
#128 = DIRECTION ( 'NONE',  ( -0.000000000000000000, -0.000000000000000000, -1.000000000000000000 ) ) ;
#129 = AXIS2_PLACEMENT_3D ( 'NONE', #63, #277, #95 ) ;
#130 = SHAPE_DEFINITION_REPRESENTATION ( #48, #93 ) ;
#131 = ORIENTED_EDGE ( 'NONE', *, *, #252, .F. ) ;
#132 = LOCAL_TIME ( 11, 49, 37.00000000000000000, #154 ) ;
#133 = VERTEX_POINT ( 'NONE', #19 ) ;
#134 = APPROVAL_STATUS ( 'not_yet_approved' ) ;
#135 = ORIENTED_EDGE ( 'NONE', *, *, #189, .T. ) ;
#136 = VERTEX_POINT ( 'NONE', #164 ) ;
#137 = AXIS2_PLACEMENT_3D ( 'NONE', #46, #188, #122 ) ;
#138 = VERTEX_POINT ( 'NONE', #275 ) ;
#139 = DIRECTION ( 'NONE',  ( 0.000000000000000000, 0.000000000000000000, 1.000000000000000000 ) ) ;
#140 = EDGE_CURVE ( 'NONE', #282, #136, #105, .T. ) ;
#141 = CARTESIAN_POINT ( 'NONE',  ( 0.000000000000000000, 0.000000000000000000, 5.000000000000000000 ) ) ;
#142 = DIRECTION ( 'NONE',  ( -1.000000000000000000, 0.000000000000000000, 0.000000000000000000 ) ) ;
#143 = EDGE_CURVE ( 'NONE', #138, #43, #216, .T. ) ;
#144 = DIRECTION ( 'NONE',  ( -0.000000000000000000, -0.000000000000000000, -1.000000000000000000 ) ) ;
#145 = CIRCLE ( 'NONE', #15, 4.200000000000000178 ) ;
#146 = APPROVAL_ROLE ( '' ) ;
#147 = ORIENTED_EDGE ( 'NONE', *, *, #38, .T. ) ;
#148 = LINE ( 'NONE', #196, #184 ) ;
#149 = CIRCLE ( 'NONE', #86, 4.200000000000000178 ) ;
#150 = EDGE_LOOP ( 'NONE', ( #244, #35, #2, #80 ) ) ;
#151 = ORIENTED_EDGE ( 'NONE', *, *, #140, .F. ) ;
#152 = PERSON_AND_ORGANIZATION_ROLE ( 'design_supplier' ) ;
#153 = DIRECTION ( 'NONE',  ( 1.000000000000000000, 0.000000000000000000, 0.000000000000000000 ) ) ;
#154 = COORDINATED_UNIVERSAL_TIME_OFFSET ( 1, 0, .AHEAD. ) ;
#155 = ORIENTED_EDGE ( 'NONE', *, *, #278, .T. ) ;
#156 = DATE_AND_TIME ( #79, #132 ) ;
#157 = FACE_OUTER_BOUND ( 'NONE', #62, .T. ) ;
#158 = ORIENTED_EDGE ( 'NONE', *, *, #101, .F. ) ;
#159 = CIRCLE ( 'NONE', #118, 0.1999999999999996503 ) ;
#160 = DIRECTION ( 'NONE',  ( 0.000000000000000000, 0.000000000000000000, 1.000000000000000000 ) ) ;
#161 = CARTESIAN_POINT ( 'NONE',  ( 0.000000000000000000, 0.000000000000000000, 5.199999999999996625 ) ) ;
#162 = CARTESIAN_POINT ( 'NONE',  ( 0.000000000000000000, 0.000000000000000000, 130.0000000000000000 ) ) ;
#163 = AXIS2_PLACEMENT_3D ( 'NONE', #301, #69, #142 ) ;
#164 = CARTESIAN_POINT ( 'NONE',  ( 7.000000000000000000, 8.572527594031473190E-16, 5.000000000000000000 ) ) ;
#165 = ADVANCED_FACE ( 'NONE', ( #25 ), #233, .T. ) ;
#166 = DIRECTION ( 'NONE',  ( -0.000000000000000000, -0.000000000000000000, -1.000000000000000000 ) ) ;
#167 = CARTESIAN_POINT ( 'NONE',  ( 4.200000000000000178, 0.000000000000000000, 4.999999999999998224 ) ) ;
#168 = APPROVAL ( #134, 'NEURÈENÝ' ) ;
#169 = ORIENTED_EDGE ( 'NONE', *, *, #101, .T. ) ;
#170 = TOROIDAL_SURFACE ( 'NONE', #195, 4.200000000000000178, 0.2000000000000000111 ) ;
#171 = ORIENTED_EDGE ( 'NONE', *, *, #189, .F. ) ;
#172 = PRODUCT_DEFINITION_FORMATION_WITH_SPECIFIED_SOURCE ( 'LIBOVOLNÝ', '', #92, .NOT_KNOWN. ) ;
#173 = ORIENTED_EDGE ( 'NONE', *, *, #24, .F. ) ;
#174 = ADVANCED_FACE ( 'NONE', ( #251 ), #273, .T. ) ;
#175 = PERSON_AND_ORGANIZATION_ROLE ( 'classification_officer' ) ;
#176 = DIRECTION ( 'NONE',  ( 0.000000000000000000, 0.000000000000000000, 1.000000000000000000 ) ) ;
#177 = CARTESIAN_POINT ( 'NONE',  ( 0.000000000000000000, 0.000000000000000000, 5.000000000000000000 ) ) ;
#178 = PERSON_AND_ORGANIZATION ( #206, #52 ) ;
#179 = DIRECTION ( 'NONE',  ( 1.000000000000000000, 0.000000000000000000, -0.000000000000000000 ) ) ;
#180 = AXIS2_PLACEMENT_3D ( 'NONE', #177, #64, #110 ) ;
#181 = APPROVAL_ROLE ( '' ) ;
#182 = VERTEX_POINT ( 'NONE', #253 ) ;
#183 = DIRECTION ( 'NONE',  ( 0.000000000000000000, 0.000000000000000000, 1.000000000000000000 ) ) ;
#184 = VECTOR ( 'NONE', #51, 1000.000000000000000 ) ;
#185 = CC_DESIGN_PERSON_AND_ORGANIZATION_ASSIGNMENT ( #192, #279, ( #3 ) ) ;
#186 = DIRECTION ( 'NONE',  ( 1.000000000000000000, 0.000000000000000000, 0.000000000000000000 ) ) ;
#187 = DIRECTION ( 'NONE',  ( -0.000000000000000000, -0.000000000000000000, -1.000000000000000000 ) ) ;
#188 = DIRECTION ( 'NONE',  ( 0.000000000000000000, 0.000000000000000000, 1.000000000000000000 ) ) ;
#189 = EDGE_CURVE ( 'NONE', #43, #138, #280, .T. ) ;
#190 = CARTESIAN_POINT ( 'NONE',  ( 4.000000000000000000, 4.898587196589412829E-16, 130.0000000000000000 ) ) ;
#191 = FACE_OUTER_BOUND ( 'NONE', #9, .T. ) ;
#192 = PERSON_AND_ORGANIZATION ( #206, #52 ) ;
#193 = PERSON_AND_ORGANIZATION ( #206, #52 ) ;
#194 = DIRECTION ( 'NONE',  ( 1.000000000000000000, 0.000000000000000000, 0.000000000000000000 ) ) ;
#195 = AXIS2_PLACEMENT_3D ( 'NONE', #71, #160, #68 ) ;
#196 = CARTESIAN_POINT ( 'NONE',  ( -7.000000000000000000, 0.000000000000000000, 5.000000000000000000 ) ) ;
#197 = CC_DESIGN_APPROVAL ( #286, ( #3 ) ) ;
#198 = EDGE_LOOP ( 'NONE', ( #171, #271, #239, #220 ) ) ;
#199 = AXIS2_PLACEMENT_3D ( 'NONE', #114, #183, #153 ) ;
#200 = VECTOR ( 'NONE', #243, 1000.000000000000000 ) ;
#201 = PERSON_AND_ORGANIZATION ( #206, #52 ) ;
#202 = DIRECTION ( 'NONE',  ( 0.000000000000000000, 0.000000000000000000, 1.000000000000000000 ) ) ;
#203 = ORIENTED_EDGE ( 'NONE', *, *, #298, .T. ) ;
#204 = CC_DESIGN_SECURITY_CLASSIFICATION ( #299, ( #172 ) ) ;
#205 = ORIENTED_EDGE ( 'NONE', *, *, #306, .T. ) ;
#206 = PERSON ( 'NEURÈENÝ', 'NEURÈENÝ', 'NEURÈENÝ', ('NEURÈENÝ'), ('NEURÈENÝ'), ('NEURÈENÝ') ) ;
#207 = FACE_OUTER_BOUND ( 'NONE', #222, .T. ) ;
#208 = DIRECTION ( 'NONE',  ( 1.000000000000000000, 0.000000000000000000, 0.000000000000000000 ) ) ;
#209 = DIRECTION ( 'NONE',  ( 1.000000000000000000, 0.000000000000000000, 0.000000000000000000 ) ) ;
#210 = CARTESIAN_POINT ( 'NONE',  ( 4.000000000000000000, 4.898587196589412829E-16, 5.199999999999996625 ) ) ;
#211 = LINE ( 'NONE', #190, #81 ) ;
#212 = AXIS2_PLACEMENT_3D ( 'NONE', #120, #250, #44 ) ;
#213 = CYLINDRICAL_SURFACE ( 'NONE', #296, 4.000000000000000000 ) ;
#214 = MECHANICAL_CONTEXT ( 'NONE', #59, 'mechanical' ) ;
#215 = CARTESIAN_POINT ( 'NONE',  ( 7.000000000000000000, 8.572527594031473190E-16, 0.000000000000000000 ) ) ;
#216 = CIRCLE ( 'NONE', #261, 4.000000000000000000 ) ;
#217 = CARTESIAN_POINT ( 'NONE',  ( 0.000000000000000000, 0.000000000000000000, 0.000000000000000000 ) ) ;
#218 = DESIGN_CONTEXT ( 'detailed design', #125, 'design' ) ;
#219 = LOCAL_TIME ( 11, 49, 37.00000000000000000, #73 ) ;
#220 = ORIENTED_EDGE ( 'NONE', *, *, #38, .F. ) ;
#221 = CC_DESIGN_PERSON_AND_ORGANIZATION_ASSIGNMENT ( #39, #175, ( #299 ) ) ;
#222 = EDGE_LOOP ( 'NONE', ( #66, #290 ) ) ;
#223 = CALENDAR_DATE ( 2022, 20, 6 ) ;
#224 = EDGE_LOOP ( 'NONE', ( #203, #40 ) ) ;
#225 = DATE_AND_TIME ( #223, #113 ) ;
#226 = ORIENTED_EDGE ( 'NONE', *, *, #143, .T. ) ;
#227 = EDGE_LOOP ( 'NONE', ( #30, #151, #155, #288 ) ) ;
#228 = ADVANCED_FACE ( 'NONE', ( #276 ), #47, .T. ) ;
#229 = CARTESIAN_POINT ( 'NONE',  ( -4.200000000000000178, 5.143516556418882928E-16, 4.999999999999998224 ) ) ;
#230 =( GEOMETRIC_REPRESENTATION_CONTEXT ( 3 ) GLOBAL_UNCERTAINTY_ASSIGNED_CONTEXT ( ( #34 ) ) GLOBAL_UNIT_ASSIGNED_CONTEXT ( ( #258, #58, #32 ) ) REPRESENTATION_CONTEXT ( 'NONE', 'WORKASPACE' ) );
#231 = CC_DESIGN_DATE_AND_TIME_ASSIGNMENT ( #61, #16, ( #299 ) ) ;
#232 = DIRECTION ( 'NONE',  ( 0.000000000000000000, 0.000000000000000000, 1.000000000000000000 ) ) ;
#233 = CYLINDRICAL_SURFACE ( 'NONE', #270, 4.000000000000000000 ) ;
#234 = AXIS2_PLACEMENT_3D ( 'NONE', #87, #72, #209 ) ;
#235 = CALENDAR_DATE ( 2022, 20, 6 ) ;
#236 = DIRECTION ( 'NONE',  ( 1.000000000000000000, 0.000000000000000000, 0.000000000000000000 ) ) ;
#237 = CIRCLE ( 'NONE', #109, 4.000000000000000000 ) ;
#238 = PERSON_AND_ORGANIZATION_ROLE ( 'design_owner' ) ;
#239 = ORIENTED_EDGE ( 'NONE', *, *, #96, .T. ) ;
#240 = EDGE_CURVE ( 'NONE', #182, #112, #159, .T. ) ;
#241 = PERSON_AND_ORGANIZATION ( #206, #52 ) ;
#242 = ORIENTED_EDGE ( 'NONE', *, *, #247, .F. ) ;
#243 = DIRECTION ( 'NONE',  ( -0.000000000000000000, -0.000000000000000000, -1.000000000000000000 ) ) ;
#244 = ORIENTED_EDGE ( 'NONE', *, *, #57, .F. ) ;
#245 = COORDINATED_UNIVERSAL_TIME_OFFSET ( 1, 0, .AHEAD. ) ;
#246 = LINE ( 'NONE', #42, #200 ) ;
#247 = EDGE_CURVE ( 'NONE', #43, #102, #211, .T. ) ;
#248 = PERSON_AND_ORGANIZATION ( #206, #52 ) ;
#249 = ORIENTED_EDGE ( 'NONE', *, *, #278, .F. ) ;
#250 = DIRECTION ( 'NONE',  ( 0.000000000000000000, 0.000000000000000000, 1.000000000000000000 ) ) ;
#251 = FACE_OUTER_BOUND ( 'NONE', #103, .T. ) ;
#252 = EDGE_CURVE ( 'NONE', #112, #284, #145, .T. ) ;
#253 = CARTESIAN_POINT ( 'NONE',  ( -4.000000000000000000, 0.000000000000000000, 5.199999999999996625 ) ) ;
#254 = CIRCLE ( 'NONE', #5, 7.000000000000000000 ) ;
#255 = DIRECTION ( 'NONE',  ( -1.000000000000000000, 1.224646799147353454E-16, 0.000000000000000000 ) ) ;
#256 = DIRECTION ( 'NONE',  ( 0.000000000000000000, 0.000000000000000000, 1.000000000000000000 ) ) ;
#257 = APPROVAL_STATUS ( 'not_yet_approved' ) ;
#258 =( LENGTH_UNIT ( ) NAMED_UNIT ( * ) SI_UNIT ( .MILLI., .METRE. ) );
#259 = CARTESIAN_POINT ( 'NONE',  ( 0.000000000000000000, 0.000000000000000000, 5.000000000000000000 ) ) ;
#260 = ORIENTED_EDGE ( 'NONE', *, *, #240, .F. ) ;
#261 = AXIS2_PLACEMENT_3D ( 'NONE', #162, #232, #186 ) ;
#262 = DIRECTION ( 'NONE',  ( -0.000000000000000000, -0.000000000000000000, -1.000000000000000000 ) ) ;
#263 = CC_DESIGN_DATE_AND_TIME_ASSIGNMENT ( #4, #98, ( #3 ) ) ;
#264 = CARTESIAN_POINT ( 'NONE',  ( 4.000000000000000000, 4.898587196589412829E-16, 130.0000000000000000 ) ) ;
#265 = CC_DESIGN_APPROVAL ( #106, ( #172 ) ) ;
#266 = PLANE ( 'NONE',  #65 ) ;
#267 = APPROVAL_DATE_TIME ( #225, #168 ) ;
#268 = ORIENTED_EDGE ( 'NONE', *, *, #84, .T. ) ;
#269 = VERTEX_POINT ( 'NONE', #215 ) ;
#270 = AXIS2_PLACEMENT_3D ( 'NONE', #49, #187, #303 ) ;
#271 = ORIENTED_EDGE ( 'NONE', *, *, #247, .T. ) ;
#272 = CC_DESIGN_PERSON_AND_ORGANIZATION_ASSIGNMENT ( #178, #152, ( #172 ) ) ;
#273 = CYLINDRICAL_SURFACE ( 'NONE', #163, 7.000000000000000000 ) ;
#274 = CIRCLE ( 'NONE', #302, 7.000000000000000000 ) ;
#275 = CARTESIAN_POINT ( 'NONE',  ( -4.000000000000000000, 0.000000000000000000, 130.0000000000000000 ) ) ;
#276 = FACE_OUTER_BOUND ( 'NONE', #227, .T. ) ;
#277 = DIRECTION ( 'NONE',  ( 0.000000000000000000, -1.000000000000000000, 0.000000000000000000 ) ) ;
#278 = EDGE_CURVE ( 'NONE', #282, #133, #148, .T. ) ;
#279 = PERSON_AND_ORGANIZATION_ROLE ( 'creator' ) ;
#280 = CIRCLE ( 'NONE', #137, 4.000000000000000000 ) ;
#281 = APPROVAL_STATUS ( 'not_yet_approved' ) ;
#282 = VERTEX_POINT ( 'NONE', #97 ) ;
#283 = DIRECTION ( 'NONE',  ( 0.000000000000000000, 0.000000000000000000, 1.000000000000000000 ) ) ;
#284 = VERTEX_POINT ( 'NONE', #167 ) ;
#285 = COORDINATED_UNIVERSAL_TIME_OFFSET ( 1, 0, .AHEAD. ) ;
#286 = APPROVAL ( #257, 'NEURÈENÝ' ) ;
#287 = CALENDAR_DATE ( 2022, 20, 6 ) ;
#288 = ORIENTED_EDGE ( 'NONE', *, *, #294, .T. ) ;
#289 = CIRCLE ( 'NONE', #180, 7.000000000000000000 ) ;
#290 = ORIENTED_EDGE ( 'NONE', *, *, #24, .T. ) ;
#291 = AXIS2_PLACEMENT_3D ( 'NONE', #7, #104, #236 ) ;
#292 = PERSON_AND_ORGANIZATION_ROLE ( 'creator' ) ;
#293 = FACE_OUTER_BOUND ( 'NONE', #37, .T. ) ;
#294 = EDGE_CURVE ( 'NONE', #133, #269, #254, .T. ) ;
#295 = PLANE ( 'NONE',  #28 ) ;
#296 = AXIS2_PLACEMENT_3D ( 'NONE', #94, #117, #304 ) ;
#297 = DIRECTION ( 'NONE',  ( 0.000000000000000000, 0.000000000000000000, 1.000000000000000000 ) ) ;
#298 = EDGE_CURVE ( 'NONE', #284, #112, #149, .T. ) ;
#299 = SECURITY_CLASSIFICATION ( '', '', #107 ) ;
#300 = CARTESIAN_POINT ( 'NONE',  ( 0.000000000000000000, 0.000000000000000000, 0.000000000000000000 ) ) ;
#301 = CARTESIAN_POINT ( 'NONE',  ( 0.000000000000000000, 0.000000000000000000, 5.000000000000000000 ) ) ;
#302 = AXIS2_PLACEMENT_3D ( 'NONE', #300, #139, #121 ) ;
#303 = DIRECTION ( 'NONE',  ( -1.000000000000000000, 0.000000000000000000, 0.000000000000000000 ) ) ;
#304 = DIRECTION ( 'NONE',  ( -1.000000000000000000, 0.000000000000000000, 0.000000000000000000 ) ) ;
#305 = CC_DESIGN_APPROVAL ( #168, ( #299 ) ) ;
#306 = EDGE_CURVE ( 'NONE', #136, #269, #56, .T. ) ;
#307 = DIRECTION ( 'NONE',  ( -1.000000000000000000, 0.000000000000000000, 0.000000000000000000 ) ) ;
ENDSEC;
END-ISO-10303-21;
