ISO-10303-21;
HEADER;
FILE_DESCRIPTION (( 'STEP AP203' ),
    '1' );
FILE_NAME ('f611.STEP',
    '2022-06-20T09:41:48',
    ( '' ),
    ( '' ),
    'SwSTEP 2.0',
    'SolidWorks 2019',
    '' );
FILE_SCHEMA (( 'CONFIG_CONTROL_DESIGN' ));
ENDSEC;

DATA;
#1 = CARTESIAN_POINT ( 'NONE',  ( 0.000000000000000000, 0.000000000000000000, 5.000000000000000000 ) ) ;
#2 = APPLICATION_CONTEXT ( 'configuration controlled 3d designs of mechanical parts and assemblies' ) ;
#3 =( LENGTH_UNIT ( ) NAMED_UNIT ( * ) SI_UNIT ( .MILLI., .METRE. ) );
#4 = DIRECTION ( 'NONE',  ( -0.000000000000000000, -0.000000000000000000, -1.000000000000000000 ) ) ;
#5 = CIRCLE ( 'NONE', #286, 5.000000000000000888 ) ;
#6 = ORIENTED_EDGE ( 'NONE', *, *, #124, .F. ) ;
#7 = ORIENTED_EDGE ( 'NONE', *, *, #46, .T. ) ;
#8 = AXIS2_PLACEMENT_3D ( 'NONE', #118, #307, #160 ) ;
#9 = VERTEX_POINT ( 'NONE', #295 ) ;
#10 = ORIENTED_EDGE ( 'NONE', *, *, #89, .F. ) ;
#11 = COORDINATED_UNIVERSAL_TIME_OFFSET ( 1, 0, .AHEAD. ) ;
#12 = PERSON_AND_ORGANIZATION ( #154, #105 ) ;
#13 = EDGE_LOOP ( 'NONE', ( #202, #240, #7, #267 ) ) ;
#14 = AXIS2_PLACEMENT_3D ( 'NONE', #251, #302, #158 ) ;
#15 = APPROVAL_PERSON_ORGANIZATION ( #77, #148, #294 ) ;
#16 = DIRECTION ( 'NONE',  ( 1.000000000000000000, 0.000000000000000000, 0.000000000000000000 ) ) ;
#17 = DIRECTION ( 'NONE',  ( 1.000000000000000000, 0.000000000000000000, -0.000000000000000000 ) ) ;
#18 = DIRECTION ( 'NONE',  ( 0.000000000000000000, 0.000000000000000000, 1.000000000000000000 ) ) ;
#19 = CARTESIAN_POINT ( 'NONE',  ( -5.000000000000000888, 0.000000000000000000, 130.0000000000000000 ) ) ;
#20 = DIRECTION ( 'NONE',  ( -0.000000000000000000, -0.000000000000000000, -1.000000000000000000 ) ) ;
#21 = CARTESIAN_POINT ( 'NONE',  ( 5.000000000000000888, 6.123233995736767268E-16, 5.199999999999996625 ) ) ;
#22 = PRODUCT ( 'f611', 'f611', '', ( #200 ) ) ;
#23 = CYLINDRICAL_SURFACE ( 'NONE', #83, 5.000000000000000888 ) ;
#24 = LINE ( 'NONE', #211, #25 ) ;
#25 = VECTOR ( 'NONE', #284, 1000.000000000000000 ) ;
#26 = CARTESIAN_POINT ( 'NONE',  ( 0.000000000000000000, 0.000000000000000000, 0.000000000000000000 ) ) ;
#27 = EDGE_LOOP ( 'NONE', ( #245, #43, #221, #218 ) ) ;
#28 = EDGE_CURVE ( 'NONE', #9, #299, #171, .T. ) ;
#29 = DATE_AND_TIME ( #243, #135 ) ;
#30 = VERTEX_POINT ( 'NONE', #229 ) ;
#31 = ORIENTED_EDGE ( 'NONE', *, *, #89, .T. ) ;
#32 = CIRCLE ( 'NONE', #217, 5.000000000000000888 ) ;
#33 = DATE_TIME_ROLE ( 'creation_date' ) ;
#34 = COORDINATED_UNIVERSAL_TIME_OFFSET ( 1, 0, .AHEAD. ) ;
#35 = VERTEX_POINT ( 'NONE', #138 ) ;
#36 = ADVANCED_FACE ( 'NONE', ( #69 ), #136, .F. ) ;
#37 = VECTOR ( 'NONE', #117, 1000.000000000000000 ) ;
#38 = CIRCLE ( 'NONE', #115, 8.000000000000000000 ) ;
#39 = DIRECTION ( 'NONE',  ( -0.000000000000000000, -0.000000000000000000, -1.000000000000000000 ) ) ;
#40 = EDGE_CURVE ( 'NONE', #176, #303, #73, .T. ) ;
#41 = LINE ( 'NONE', #19, #37 ) ;
#42 = CARTESIAN_POINT ( 'NONE',  ( 0.000000000000000000, 0.000000000000000000, 5.199999999999996625 ) ) ;
#43 = ORIENTED_EDGE ( 'NONE', *, *, #300, .T. ) ;
#44 = CARTESIAN_POINT ( 'NONE',  ( 0.000000000000000000, 0.000000000000000000, 5.199999999999996625 ) ) ;
#45 = DIRECTION ( 'NONE',  ( 1.000000000000000000, 0.000000000000000000, 0.000000000000000000 ) ) ;
#46 = EDGE_CURVE ( 'NONE', #86, #176, #41, .T. ) ;
#47 = CARTESIAN_POINT ( 'NONE',  ( -5.200000000000001066, 6.368163355566237368E-16, 4.999999999999998224 ) ) ;
#48 = CARTESIAN_POINT ( 'NONE',  ( 5.200000000000001066, 0.000000000000000000, 5.199999999999996625 ) ) ;
#49 = APPLICATION_PROTOCOL_DEFINITION ( 'international standard', 'config_control_design', 1994, #2 ) ;
#50 = DIRECTION ( 'NONE',  ( 0.000000000000000000, 0.000000000000000000, 1.000000000000000000 ) ) ;
#51 = DIRECTION ( 'NONE',  ( 0.000000000000000000, 0.000000000000000000, 1.000000000000000000 ) ) ;
#52 = APPROVAL_ROLE ( '' ) ;
#53 = ORIENTED_EDGE ( 'NONE', *, *, #28, .T. ) ;
#54 = ORIENTED_EDGE ( 'NONE', *, *, #193, .T. ) ;
#55 = CIRCLE ( 'NONE', #297, 0.1999999999999996503 ) ;
#56 = ADVANCED_BREP_SHAPE_REPRESENTATION ( 'f611', ( #290, #194 ), #78 ) ;
#57 = AXIS2_PLACEMENT_3D ( 'NONE', #164, #236, #262 ) ;
#58 = APPROVAL_STATUS ( 'not_yet_approved' ) ;
#59 = SHAPE_DEFINITION_REPRESENTATION ( #166, #56 ) ;
#60 = ORIENTED_EDGE ( 'NONE', *, *, #72, .F. ) ;
#61 = VECTOR ( 'NONE', #276, 1000.000000000000000 ) ;
#62 = CARTESIAN_POINT ( 'NONE',  ( 0.000000000000000000, 0.000000000000000000, 5.199999999999996625 ) ) ;
#63 = ADVANCED_FACE ( 'NONE', ( #230 ), #213, .F. ) ;
#64 = LOCAL_TIME ( 11, 41, 48.00000000000000000, #34 ) ;
#65 = DIRECTION ( 'NONE',  ( -1.000000000000000000, 0.000000000000000000, 0.000000000000000000 ) ) ;
#66 = CARTESIAN_POINT ( 'NONE',  ( 0.000000000000000000, 0.000000000000000000, 0.000000000000000000 ) ) ;
#67 = DIRECTION ( 'NONE',  ( 1.000000000000000000, 0.000000000000000000, 0.000000000000000000 ) ) ;
#68 = CC_DESIGN_PERSON_AND_ORGANIZATION_ASSIGNMENT ( #151, #291, ( #112 ) ) ;
#69 = FACE_OUTER_BOUND ( 'NONE', #301, .T. ) ;
#70 = DIRECTION ( 'NONE',  ( -1.000000000000000000, 0.000000000000000000, 0.000000000000000000 ) ) ;
#71 = DIRECTION ( 'NONE',  ( -1.000000000000000000, 0.000000000000000000, 0.000000000000000000 ) ) ;
#72 = EDGE_CURVE ( 'NONE', #9, #35, #98, .T. ) ;
#73 = CIRCLE ( 'NONE', #277, 5.000000000000000888 ) ;
#74 =( NAMED_UNIT ( * ) PLANE_ANGLE_UNIT ( ) SI_UNIT ( $, .RADIAN. ) );
#75 = DIRECTION ( 'NONE',  ( 1.000000000000000000, 0.000000000000000000, 0.000000000000000000 ) ) ;
#76 = DIRECTION ( 'NONE',  ( 0.000000000000000000, 0.000000000000000000, 1.000000000000000000 ) ) ;
#77 = PERSON_AND_ORGANIZATION ( #154, #105 ) ;
#78 =( GEOMETRIC_REPRESENTATION_CONTEXT ( 3 ) GLOBAL_UNCERTAINTY_ASSIGNED_CONTEXT ( ( #250 ) ) GLOBAL_UNIT_ASSIGNED_CONTEXT ( ( #3, #74, #187 ) ) REPRESENTATION_CONTEXT ( 'NONE', 'WORKASPACE' ) );
#79 = CC_DESIGN_SECURITY_CLASSIFICATION ( #304, ( #190 ) ) ;
#80 = CALENDAR_DATE ( 2022, 20, 6 ) ;
#81 = APPROVAL_ROLE ( '' ) ;
#82 = CC_DESIGN_PERSON_AND_ORGANIZATION_ASSIGNMENT ( #109, #246, ( #304 ) ) ;
#83 = AXIS2_PLACEMENT_3D ( 'NONE', #260, #145, #70 ) ;
#84 = APPROVAL_DATE_TIME ( #146, #96 ) ;
#85 = VERTEX_POINT ( 'NONE', #252 ) ;
#86 = VERTEX_POINT ( 'NONE', #92 ) ;
#87 = ORIENTED_EDGE ( 'NONE', *, *, #28, .F. ) ;
#88 = ORIENTED_EDGE ( 'NONE', *, *, #293, .T. ) ;
#89 = EDGE_CURVE ( 'NONE', #244, #128, #113, .T. ) ;
#90 = DIRECTION ( 'NONE',  ( -1.000000000000000000, 1.224646799147353454E-16, 0.000000000000000000 ) ) ;
#91 = AXIS2_PLACEMENT_3D ( 'NONE', #215, #235, #75 ) ;
#92 = CARTESIAN_POINT ( 'NONE',  ( -5.000000000000000888, 0.000000000000000000, 130.0000000000000000 ) ) ;
#93 = DIRECTION ( 'NONE',  ( 0.000000000000000000, 0.000000000000000000, 1.000000000000000000 ) ) ;
#94 = EDGE_CURVE ( 'NONE', #303, #176, #5, .T. ) ;
#95 = FACE_OUTER_BOUND ( 'NONE', #155, .T. ) ;
#96 = APPROVAL ( #110, 'NEURÈENÝ' ) ;
#97 = DIRECTION ( 'NONE',  ( 1.000000000000000000, 0.000000000000000000, -0.000000000000000000 ) ) ;
#98 = CIRCLE ( 'NONE', #253, 8.000000000000000000 ) ;
#99 = CIRCLE ( 'NONE', #139, 8.000000000000000000 ) ;
#100 = APPLICATION_CONTEXT ( 'configuration controlled 3d designs of mechanical parts and assemblies' ) ;
#101 = ADVANCED_FACE ( 'NONE', ( #116, #232 ), #209, .T. ) ;
#102 = COORDINATED_UNIVERSAL_TIME_OFFSET ( 1, 0, .AHEAD. ) ;
#103 = AXIS2_PLACEMENT_3D ( 'NONE', #248, #39, #228 ) ;
#104 = ORIENTED_EDGE ( 'NONE', *, *, #185, .F. ) ;
#105 = ORGANIZATION ( 'NEURÈENÝ', 'NEURÈENÝ', '' ) ;
#106 = ORIENTED_EDGE ( 'NONE', *, *, #189, .F. ) ;
#107 = PRODUCT_RELATED_PRODUCT_CATEGORY ( 'detail', '', ( #22 ) ) ;
#108 = EDGE_LOOP ( 'NONE', ( #88, #31 ) ) ;
#109 = PERSON_AND_ORGANIZATION ( #154, #105 ) ;
#110 = APPROVAL_STATUS ( 'not_yet_approved' ) ;
#111 = DESIGN_CONTEXT ( 'detailed design', #100, 'design' ) ;
#112 = PRODUCT_DEFINITION ( 'NEZNÁMÝ', '', #190, #111 ) ;
#113 = CIRCLE ( 'NONE', #103, 5.200000000000001066 ) ;
#114 = CARTESIAN_POINT ( 'NONE',  ( -5.200000000000001066, 6.368163355566237368E-16, 5.199999999999996625 ) ) ;
#115 = AXIS2_PLACEMENT_3D ( 'NONE', #26, #50, #186 ) ;
#116 = FACE_BOUND ( 'NONE', #108, .T. ) ;
#117 = DIRECTION ( 'NONE',  ( -0.000000000000000000, -0.000000000000000000, -1.000000000000000000 ) ) ;
#118 = CARTESIAN_POINT ( 'NONE',  ( 0.000000000000000000, 0.000000000000000000, 5.000000000000000000 ) ) ;
#119 = CARTESIAN_POINT ( 'NONE',  ( 0.000000000000000000, 0.000000000000000000, 130.0000000000000000 ) ) ;
#120 = CYLINDRICAL_SURFACE ( 'NONE', #201, 8.000000000000000000 ) ;
#121 = DIRECTION ( 'NONE',  ( 0.000000000000000000, -1.000000000000000000, 0.000000000000000000 ) ) ;
#122 = AXIS2_PLACEMENT_3D ( 'NONE', #48, #121, #212 ) ;
#123 = CARTESIAN_POINT ( 'NONE',  ( 8.000000000000000000, 9.797174393178825657E-16, 5.000000000000000000 ) ) ;
#124 = EDGE_CURVE ( 'NONE', #176, #244, #55, .T. ) ;
#125 = CARTESIAN_POINT ( 'NONE',  ( 0.000000000000000000, 0.000000000000000000, 130.0000000000000000 ) ) ;
#126 = PERSON_AND_ORGANIZATION ( #154, #105 ) ;
#127 = ADVANCED_FACE ( 'NONE', ( #204 ), #181, .T. ) ;
#128 = VERTEX_POINT ( 'NONE', #279 ) ;
#129 = EDGE_LOOP ( 'NONE', ( #199, #60, #53, #226 ) ) ;
#130 = CIRCLE ( 'NONE', #287, 5.000000000000000888 ) ;
#131 = PERSON_AND_ORGANIZATION ( #154, #105 ) ;
#132 = EDGE_LOOP ( 'NONE', ( #6, #219, #271, #10 ) ) ;
#133 = PERSON_AND_ORGANIZATION_ROLE ( 'creator' ) ;
#134 = ADVANCED_FACE ( 'NONE', ( #233 ), #208, .T. ) ;
#135 = LOCAL_TIME ( 11, 41, 48.00000000000000000, #11 ) ;
#136 = PLANE ( 'NONE',  #205 ) ;
#137 = DIRECTION ( 'NONE',  ( 0.000000000000000000, 0.000000000000000000, 1.000000000000000000 ) ) ;
#138 = CARTESIAN_POINT ( 'NONE',  ( 8.000000000000000000, 9.797174393178825657E-16, 5.000000000000000000 ) ) ;
#139 = AXIS2_PLACEMENT_3D ( 'NONE', #66, #306, #67 ) ;
#140 = DIRECTION ( 'NONE',  ( 0.000000000000000000, 0.000000000000000000, 1.000000000000000000 ) ) ;
#141 = FACE_OUTER_BOUND ( 'NONE', #292, .T. ) ;
#142 = EDGE_CURVE ( 'NONE', #299, #30, #99, .T. ) ;
#143 = DIRECTION ( 'NONE',  ( -0.000000000000000000, -0.000000000000000000, -1.000000000000000000 ) ) ;
#144 = EDGE_CURVE ( 'NONE', #35, #9, #180, .T. ) ;
#145 = DIRECTION ( 'NONE',  ( -0.000000000000000000, -0.000000000000000000, -1.000000000000000000 ) ) ;
#146 = DATE_AND_TIME ( #266, #231 ) ;
#147 = ORIENTED_EDGE ( 'NONE', *, *, #293, .F. ) ;
#148 = APPROVAL ( #269, 'NEURÈENÝ' ) ;
#149 = CALENDAR_DATE ( 2022, 20, 6 ) ;
#150 = ORIENTED_EDGE ( 'NONE', *, *, #144, .F. ) ;
#151 = PERSON_AND_ORGANIZATION ( #154, #105 ) ;
#152 = CIRCLE ( 'NONE', #57, 5.200000000000001066 ) ;
#153 = ORIENTED_EDGE ( 'NONE', *, *, #124, .T. ) ;
#154 = PERSON ( 'NEURÈENÝ', 'NEURÈENÝ', 'NEURÈENÝ', ('NEURÈENÝ'), ('NEURÈENÝ'), ('NEURÈENÝ') ) ;
#155 = EDGE_LOOP ( 'NONE', ( #54, #173 ) ) ;
#156 = ADVANCED_FACE ( 'NONE', ( #95 ), #255, .T. ) ;
#157 = AXIS2_PLACEMENT_3D ( 'NONE', #44, #93, #281 ) ;
#158 = DIRECTION ( 'NONE',  ( -1.000000000000000000, 0.000000000000000000, 0.000000000000000000 ) ) ;
#159 = CARTESIAN_POINT ( 'NONE',  ( 0.000000000000000000, 0.000000000000000000, 0.000000000000000000 ) ) ;
#160 = DIRECTION ( 'NONE',  ( 1.000000000000000000, 0.000000000000000000, 0.000000000000000000 ) ) ;
#161 = TOROIDAL_SURFACE ( 'NONE', #91, 5.200000000000001066, 0.2000000000000000111 ) ;
#162 = CC_DESIGN_APPROVAL ( #96, ( #304 ) ) ;
#163 = DIRECTION ( 'NONE',  ( 0.000000000000000000, 0.000000000000000000, 1.000000000000000000 ) ) ;
#164 = CARTESIAN_POINT ( 'NONE',  ( 0.000000000000000000, 0.000000000000000000, 5.000000000000000000 ) ) ;
#165 = CARTESIAN_POINT ( 'NONE',  ( 0.000000000000000000, 0.000000000000000000, 5.000000000000000000 ) ) ;
#166 = PRODUCT_DEFINITION_SHAPE ( 'NONE', 'NONE',  #112 ) ;
#167 = APPROVAL_PERSON_ORGANIZATION ( #12, #96, #52 ) ;
#168 = FACE_OUTER_BOUND ( 'NONE', #177, .T. ) ;
#169 = ORIENTED_EDGE ( 'NONE', *, *, #144, .T. ) ;
#170 = APPROVAL_DATE_TIME ( #29, #241 ) ;
#171 = LINE ( 'NONE', #210, #61 ) ;
#172 = DIRECTION ( 'NONE',  ( 1.000000000000000000, 0.000000000000000000, 0.000000000000000000 ) ) ;
#173 = ORIENTED_EDGE ( 'NONE', *, *, #222, .T. ) ;
#174 = ADVANCED_FACE ( 'NONE', ( #141 ), #120, .T. ) ;
#175 = PERSON_AND_ORGANIZATION_ROLE ( 'design_supplier' ) ;
#176 = VERTEX_POINT ( 'NONE', #234 ) ;
#177 = EDGE_LOOP ( 'NONE', ( #227, #153, #147, #104 ) ) ;
#178 = CARTESIAN_POINT ( 'NONE',  ( 0.000000000000000000, 0.000000000000000000, 5.000000000000000000 ) ) ;
#179 = ADVANCED_FACE ( 'NONE', ( #289 ), #23, .T. ) ;
#180 = CIRCLE ( 'NONE', #8, 8.000000000000000000 ) ;
#181 = CYLINDRICAL_SURFACE ( 'NONE', #14, 5.000000000000000888 ) ;
#182 = DIRECTION ( 'NONE',  ( 0.000000000000000000, 0.000000000000000000, 1.000000000000000000 ) ) ;
#183 = CARTESIAN_POINT ( 'NONE',  ( 0.000000000000000000, 0.000000000000000000, 130.0000000000000000 ) ) ;
#184 = LOCAL_TIME ( 11, 41, 48.00000000000000000, #298 ) ;
#185 = EDGE_CURVE ( 'NONE', #303, #128, #256, .T. ) ;
#186 = DIRECTION ( 'NONE',  ( 1.000000000000000000, 0.000000000000000000, 0.000000000000000000 ) ) ;
#187 =( NAMED_UNIT ( * ) SI_UNIT ( $, .STERADIAN. ) SOLID_ANGLE_UNIT ( ) );
#188 = AXIS2_PLACEMENT_3D ( 'NONE', #178, #137, #257 ) ;
#189 = EDGE_CURVE ( 'NONE', #30, #299, #38, .T. ) ;
#190 = PRODUCT_DEFINITION_FORMATION_WITH_SPECIFIED_SOURCE ( 'LIBOVOLNÝ', '', #22, .NOT_KNOWN. ) ;
#191 = CARTESIAN_POINT ( 'NONE',  ( 0.000000000000000000, 0.000000000000000000, 0.000000000000000000 ) ) ;
#192 = COORDINATED_UNIVERSAL_TIME_OFFSET ( 1, 0, .AHEAD. ) ;
#193 = EDGE_CURVE ( 'NONE', #86, #85, #32, .T. ) ;
#194 = AXIS2_PLACEMENT_3D ( 'NONE', #191, #288, #172 ) ;
#195 = APPROVAL_DATE_TIME ( #223, #148 ) ;
#196 = ORIENTED_EDGE ( 'NONE', *, *, #189, .T. ) ;
#197 = APPLICATION_PROTOCOL_DEFINITION ( 'international standard', 'config_control_design', 1994, #100 ) ;
#198 = DATE_AND_TIME ( #225, #64 ) ;
#199 = ORIENTED_EDGE ( 'NONE', *, *, #285, .F. ) ;
#200 = MECHANICAL_CONTEXT ( 'NONE', #2, 'mechanical' ) ;
#201 = AXIS2_PLACEMENT_3D ( 'NONE', #165, #4, #71 ) ;
#202 = ORIENTED_EDGE ( 'NONE', *, *, #300, .F. ) ;
#203 = CC_DESIGN_DATE_AND_TIME_ASSIGNMENT ( #198, #296, ( #304 ) ) ;
#204 = FACE_OUTER_BOUND ( 'NONE', #13, .T. ) ;
#205 = AXIS2_PLACEMENT_3D ( 'NONE', #159, #163, #17 ) ;
#206 = DIRECTION ( 'NONE',  ( 1.000000000000000000, 0.000000000000000000, 0.000000000000000000 ) ) ;
#207 = AXIS2_PLACEMENT_3D ( 'NONE', #183, #282, #97 ) ;
#208 = CYLINDRICAL_SURFACE ( 'NONE', #214, 8.000000000000000000 ) ;
#209 = PLANE ( 'NONE',  #188 ) ;
#210 = CARTESIAN_POINT ( 'NONE',  ( -8.000000000000000000, 0.000000000000000000, 5.000000000000000000 ) ) ;
#211 = CARTESIAN_POINT ( 'NONE',  ( 5.000000000000000888, 6.123233995736767268E-16, 130.0000000000000000 ) ) ;
#212 = DIRECTION ( 'NONE',  ( 0.000000000000000000, 0.000000000000000000, -1.000000000000000000 ) ) ;
#213 = TOROIDAL_SURFACE ( 'NONE', #157, 5.200000000000001066, 0.2000000000000000111 ) ;
#214 = AXIS2_PLACEMENT_3D ( 'NONE', #280, #20, #65 ) ;
#215 = CARTESIAN_POINT ( 'NONE',  ( 0.000000000000000000, 0.000000000000000000, 5.199999999999996625 ) ) ;
#216 = ORIENTED_EDGE ( 'NONE', *, *, #142, .F. ) ;
#217 = AXIS2_PLACEMENT_3D ( 'NONE', #125, #76, #263 ) ;
#218 = ORIENTED_EDGE ( 'NONE', *, *, #46, .F. ) ;
#219 = ORIENTED_EDGE ( 'NONE', *, *, #94, .F. ) ;
#220 = SECURITY_CLASSIFICATION_LEVEL ( 'unclassified' ) ;
#221 = ORIENTED_EDGE ( 'NONE', *, *, #94, .T. ) ;
#222 = EDGE_CURVE ( 'NONE', #85, #86, #130, .T. ) ;
#223 = DATE_AND_TIME ( #149, #261 ) ;
#224 = ORIENTED_EDGE ( 'NONE', *, *, #72, .T. ) ;
#225 = CALENDAR_DATE ( 2022, 20, 6 ) ;
#226 = ORIENTED_EDGE ( 'NONE', *, *, #142, .T. ) ;
#227 = ORIENTED_EDGE ( 'NONE', *, *, #40, .F. ) ;
#228 = DIRECTION ( 'NONE',  ( 1.000000000000000000, 0.000000000000000000, 0.000000000000000000 ) ) ;
#229 = CARTESIAN_POINT ( 'NONE',  ( 8.000000000000000000, 9.797174393178825657E-16, 0.000000000000000000 ) ) ;
#230 = FACE_OUTER_BOUND ( 'NONE', #132, .T. ) ;
#231 = LOCAL_TIME ( 11, 41, 48.00000000000000000, #102 ) ;
#232 = FACE_OUTER_BOUND ( 'NONE', #275, .T. ) ;
#233 = FACE_OUTER_BOUND ( 'NONE', #129, .T. ) ;
#234 = CARTESIAN_POINT ( 'NONE',  ( -5.000000000000000888, 0.000000000000000000, 5.199999999999996625 ) ) ;
#235 = DIRECTION ( 'NONE',  ( 0.000000000000000000, 0.000000000000000000, 1.000000000000000000 ) ) ;
#236 = DIRECTION ( 'NONE',  ( -0.000000000000000000, -0.000000000000000000, -1.000000000000000000 ) ) ;
#237 = VECTOR ( 'NONE', #143, 1000.000000000000000 ) ;
#238 = LINE ( 'NONE', #123, #237 ) ;
#239 = DATE_AND_TIME ( #80, #184 ) ;
#240 = ORIENTED_EDGE ( 'NONE', *, *, #193, .F. ) ;
#241 = APPROVAL ( #58, 'NEURÈENÝ' ) ;
#242 = PERSON_AND_ORGANIZATION_ROLE ( 'design_owner' ) ;
#243 = CALENDAR_DATE ( 2022, 20, 6 ) ;
#244 = VERTEX_POINT ( 'NONE', #47 ) ;
#245 = ORIENTED_EDGE ( 'NONE', *, *, #222, .F. ) ;
#246 = PERSON_AND_ORGANIZATION_ROLE ( 'classification_officer' ) ;
#247 = CC_DESIGN_APPROVAL ( #241, ( #190 ) ) ;
#248 = CARTESIAN_POINT ( 'NONE',  ( 0.000000000000000000, 0.000000000000000000, 5.000000000000000000 ) ) ;
#249 = ADVANCED_FACE ( 'NONE', ( #168 ), #161, .F. ) ;
#250 = UNCERTAINTY_MEASURE_WITH_UNIT (LENGTH_MEASURE( 1.000000000000000082E-05 ), #3, 'distance_accuracy_value', 'NONE');
#251 = CARTESIAN_POINT ( 'NONE',  ( 0.000000000000000000, 0.000000000000000000, 130.0000000000000000 ) ) ;
#252 = CARTESIAN_POINT ( 'NONE',  ( 5.000000000000000888, 6.123233995736767268E-16, 130.0000000000000000 ) ) ;
#253 = AXIS2_PLACEMENT_3D ( 'NONE', #1, #140, #206 ) ;
#254 = CC_DESIGN_DATE_AND_TIME_ASSIGNMENT ( #239, #33, ( #112 ) ) ;
#255 = PLANE ( 'NONE',  #207 ) ;
#256 = CIRCLE ( 'NONE', #122, 0.1999999999999996503 ) ;
#257 = DIRECTION ( 'NONE',  ( 1.000000000000000000, 0.000000000000000000, -0.000000000000000000 ) ) ;
#258 = CARTESIAN_POINT ( 'NONE',  ( -8.000000000000000000, 0.000000000000000000, 0.000000000000000000 ) ) ;
#259 = CC_DESIGN_PERSON_AND_ORGANIZATION_ASSIGNMENT ( #126, #242, ( #22 ) ) ;
#260 = CARTESIAN_POINT ( 'NONE',  ( 0.000000000000000000, 0.000000000000000000, 130.0000000000000000 ) ) ;
#261 = LOCAL_TIME ( 11, 41, 48.00000000000000000, #192 ) ;
#262 = DIRECTION ( 'NONE',  ( 1.000000000000000000, 0.000000000000000000, 0.000000000000000000 ) ) ;
#263 = DIRECTION ( 'NONE',  ( 1.000000000000000000, 0.000000000000000000, 0.000000000000000000 ) ) ;
#264 = CC_DESIGN_PERSON_AND_ORGANIZATION_ASSIGNMENT ( #131, #133, ( #190 ) ) ;
#265 = APPROVAL_PERSON_ORGANIZATION ( #272, #241, #81 ) ;
#266 = CALENDAR_DATE ( 2022, 20, 6 ) ;
#267 = ORIENTED_EDGE ( 'NONE', *, *, #40, .T. ) ;
#268 = CC_DESIGN_PERSON_AND_ORGANIZATION_ASSIGNMENT ( #274, #175, ( #190 ) ) ;
#269 = APPROVAL_STATUS ( 'not_yet_approved' ) ;
#270 = CLOSED_SHELL ( 'NONE', ( #249, #179, #174, #134, #101, #36, #127, #156, #63 ) ) ;
#271 = ORIENTED_EDGE ( 'NONE', *, *, #185, .T. ) ;
#272 = PERSON_AND_ORGANIZATION ( #154, #105 ) ;
#273 = ORIENTED_EDGE ( 'NONE', *, *, #285, .T. ) ;
#274 = PERSON_AND_ORGANIZATION ( #154, #105 ) ;
#275 = EDGE_LOOP ( 'NONE', ( #224, #169 ) ) ;
#276 = DIRECTION ( 'NONE',  ( -0.000000000000000000, -0.000000000000000000, -1.000000000000000000 ) ) ;
#277 = AXIS2_PLACEMENT_3D ( 'NONE', #62, #182, #45 ) ;
#278 = CC_DESIGN_APPROVAL ( #148, ( #112 ) ) ;
#279 = CARTESIAN_POINT ( 'NONE',  ( 5.200000000000001066, 0.000000000000000000, 4.999999999999998224 ) ) ;
#280 = CARTESIAN_POINT ( 'NONE',  ( 0.000000000000000000, 0.000000000000000000, 5.000000000000000000 ) ) ;
#281 = DIRECTION ( 'NONE',  ( 1.000000000000000000, 0.000000000000000000, 0.000000000000000000 ) ) ;
#282 = DIRECTION ( 'NONE',  ( 0.000000000000000000, 0.000000000000000000, 1.000000000000000000 ) ) ;
#283 = DIRECTION ( 'NONE',  ( 1.000000000000000000, 0.000000000000000000, 0.000000000000000000 ) ) ;
#284 = DIRECTION ( 'NONE',  ( -0.000000000000000000, -0.000000000000000000, -1.000000000000000000 ) ) ;
#285 = EDGE_CURVE ( 'NONE', #35, #30, #238, .T. ) ;
#286 = AXIS2_PLACEMENT_3D ( 'NONE', #42, #18, #16 ) ;
#287 = AXIS2_PLACEMENT_3D ( 'NONE', #119, #51, #283 ) ;
#288 = DIRECTION ( 'NONE',  ( 0.000000000000000000, 0.000000000000000000, 1.000000000000000000 ) ) ;
#289 = FACE_OUTER_BOUND ( 'NONE', #27, .T. ) ;
#290 = MANIFOLD_SOLID_BREP ( 'Zaoblit1', #270 ) ;
#291 = PERSON_AND_ORGANIZATION_ROLE ( 'creator' ) ;
#292 = EDGE_LOOP ( 'NONE', ( #150, #273, #196, #87 ) ) ;
#293 = EDGE_CURVE ( 'NONE', #128, #244, #152, .T. ) ;
#294 = APPROVAL_ROLE ( '' ) ;
#295 = CARTESIAN_POINT ( 'NONE',  ( -8.000000000000000000, 0.000000000000000000, 5.000000000000000000 ) ) ;
#296 = DATE_TIME_ROLE ( 'classification_date' ) ;
#297 = AXIS2_PLACEMENT_3D ( 'NONE', #114, #305, #90 ) ;
#298 = COORDINATED_UNIVERSAL_TIME_OFFSET ( 1, 0, .AHEAD. ) ;
#299 = VERTEX_POINT ( 'NONE', #258 ) ;
#300 = EDGE_CURVE ( 'NONE', #85, #303, #24, .T. ) ;
#301 = EDGE_LOOP ( 'NONE', ( #216, #106 ) ) ;
#302 = DIRECTION ( 'NONE',  ( -0.000000000000000000, -0.000000000000000000, -1.000000000000000000 ) ) ;
#303 = VERTEX_POINT ( 'NONE', #21 ) ;
#304 = SECURITY_CLASSIFICATION ( '', '', #220 ) ;
#305 = DIRECTION ( 'NONE',  ( 1.224646799147353207E-16, 1.000000000000000000, -0.000000000000000000 ) ) ;
#306 = DIRECTION ( 'NONE',  ( 0.000000000000000000, 0.000000000000000000, 1.000000000000000000 ) ) ;
#307 = DIRECTION ( 'NONE',  ( 0.000000000000000000, 0.000000000000000000, 1.000000000000000000 ) ) ;
ENDSEC;
END-ISO-10303-21;
