ISO-10303-21;
HEADER;
FILE_DESCRIPTION (( 'STEP AP203' ),
    '1' );
FILE_NAME ('81c2.STEP',
    '2022-06-20T10:26:01',
    ( '' ),
    ( '' ),
    'SwSTEP 2.0',
    'SolidWorks 2019',
    '' );
FILE_SCHEMA (( 'CONFIG_CONTROL_DESIGN' ));
ENDSEC;

DATA;
#1 = CALENDAR_DATE ( 2022, 20, 6 ) ;
#2 = ORIENTED_EDGE ( 'NONE', *, *, #109, .F. ) ;
#3 = ORIENTED_EDGE ( 'NONE', *, *, #102, .F. ) ;
#4 = CARTESIAN_POINT ( 'NONE',  ( 0.6999999999999999556, 0.000000000000000000, 1.399999999999998579 ) ) ;
#5 = APPROVAL_DATE_TIME ( #70, #268 ) ;
#6 = DIRECTION ( 'NONE',  ( -0.000000000000000000, -0.000000000000000000, -1.000000000000000000 ) ) ;
#7 = COORDINATED_UNIVERSAL_TIME_OFFSET ( 1, 0, .AHEAD. ) ;
#8 = ORIENTED_EDGE ( 'NONE', *, *, #162, .T. ) ;
#9 = DIRECTION ( 'NONE',  ( 0.000000000000000000, 0.000000000000000000, 1.000000000000000000 ) ) ;
#10 = APPROVAL ( #159, 'NEURÈENÝ' ) ;
#11 = CYLINDRICAL_SURFACE ( 'NONE', #301, 1.250000000000000000 ) ;
#12 = CARTESIAN_POINT ( 'NONE',  ( 0.5000000000000000000, 6.123233995736766036E-17, 1.399999999999998579 ) ) ;
#13 = FACE_OUTER_BOUND ( 'NONE', #187, .T. ) ;
#14 = ADVANCED_FACE ( 'NONE', ( #126, #215 ), #125, .T. ) ;
#15 = FACE_OUTER_BOUND ( 'NONE', #212, .T. ) ;
#16 = APPROVAL_DATE_TIME ( #206, #33 ) ;
#17 = APPROVAL_DATE_TIME ( #64, #10 ) ;
#18 =( NAMED_UNIT ( * ) SI_UNIT ( $, .STERADIAN. ) SOLID_ANGLE_UNIT ( ) );
#19 = EDGE_CURVE ( 'NONE', #196, #265, #32, .T. ) ;
#20 = AXIS2_PLACEMENT_3D ( 'NONE', #31, #83, #55 ) ;
#21 = ORIENTED_EDGE ( 'NONE', *, *, #185, .T. ) ;
#22 = PRODUCT_RELATED_PRODUCT_CATEGORY ( 'detail', '', ( #297 ) ) ;
#23 = ORIENTED_EDGE ( 'NONE', *, *, #73, .F. ) ;
#24 = ORIENTED_EDGE ( 'NONE', *, *, #134, .F. ) ;
#25 = PERSON_AND_ORGANIZATION ( #117, #118 ) ;
#26 = CIRCLE ( 'NONE', #20, 0.5000000000000000000 ) ;
#27 = VERTEX_POINT ( 'NONE', #145 ) ;
#28 = AXIS2_PLACEMENT_3D ( 'NONE', #183, #182, #284 ) ;
#29 = PERSON_AND_ORGANIZATION_ROLE ( 'creator' ) ;
#30 = ORIENTED_EDGE ( 'NONE', *, *, #120, .T. ) ;
#31 = CARTESIAN_POINT ( 'NONE',  ( 0.000000000000000000, 0.000000000000000000, 1.399999999999998579 ) ) ;
#32 = CIRCLE ( 'NONE', #104, 0.2000000000000000944 ) ;
#33 = APPROVAL ( #232, 'NEURÈENÝ' ) ;
#34 = PLANE ( 'NONE',  #88 ) ;
#35 = CIRCLE ( 'NONE', #65, 0.5000000000000000000 ) ;
#36 = AXIS2_PLACEMENT_3D ( 'NONE', #296, #139, #87 ) ;
#37 = DIRECTION ( 'NONE',  ( 1.000000000000000000, 0.000000000000000000, 0.000000000000000000 ) ) ;
#38 = DIRECTION ( 'NONE',  ( 1.224646799147353207E-16, 1.000000000000000000, -0.000000000000000000 ) ) ;
#39 = CARTESIAN_POINT ( 'NONE',  ( 0.5000000000000000000, 6.123233995736766036E-17, 101.2000000000000171 ) ) ;
#40 = CC_DESIGN_PERSON_AND_ORGANIZATION_ASSIGNMENT ( #208, #29, ( #158 ) ) ;
#41 = DIRECTION ( 'NONE',  ( 1.000000000000000000, 0.000000000000000000, 0.000000000000000000 ) ) ;
#42 = AXIS2_PLACEMENT_3D ( 'NONE', #59, #107, #129 ) ;
#43 = ADVANCED_FACE ( 'NONE', ( #171 ), #46, .T. ) ;
#44 = EDGE_LOOP ( 'NONE', ( #24, #23, #8, #147 ) ) ;
#45 = AXIS2_PLACEMENT_3D ( 'NONE', #197, #49, #74 ) ;
#46 = CYLINDRICAL_SURFACE ( 'NONE', #207, 1.250000000000000000 ) ;
#47 = VECTOR ( 'NONE', #62, 1000.000000000000000 ) ;
#48 = LOCAL_TIME ( 12, 26, 1.000000000000000000, #222 ) ;
#49 = DIRECTION ( 'NONE',  ( -0.000000000000000000, -0.000000000000000000, -1.000000000000000000 ) ) ;
#50 = EDGE_CURVE ( 'NONE', #291, #95, #261, .T. ) ;
#51 = DIRECTION ( 'NONE',  ( 0.000000000000000000, 0.000000000000000000, 1.000000000000000000 ) ) ;
#52 = ORIENTED_EDGE ( 'NONE', *, *, #253, .F. ) ;
#53 = SECURITY_CLASSIFICATION ( '', '', #100 ) ;
#54 = ORIENTED_EDGE ( 'NONE', *, *, #114, .F. ) ;
#55 = DIRECTION ( 'NONE',  ( 1.000000000000000000, 0.000000000000000000, 0.000000000000000000 ) ) ;
#56 = AXIS2_PLACEMENT_3D ( 'NONE', #148, #223, #80 ) ;
#57 = CYLINDRICAL_SURFACE ( 'NONE', #272, 0.5000000000000000000 ) ;
#58 = LOCAL_TIME ( 12, 26, 1.000000000000000000, #254 ) ;
#59 = CARTESIAN_POINT ( 'NONE',  ( 0.000000000000000000, 0.000000000000000000, 1.399999999999998579 ) ) ;
#60 = ADVANCED_FACE ( 'NONE', ( #71 ), #240, .T. ) ;
#61 = DIRECTION ( 'NONE',  ( 0.000000000000000000, 0.000000000000000000, 1.000000000000000000 ) ) ;
#62 = DIRECTION ( 'NONE',  ( -0.000000000000000000, -0.000000000000000000, -1.000000000000000000 ) ) ;
#63 = CIRCLE ( 'NONE', #276, 0.6999999999999999556 ) ;
#64 = DATE_AND_TIME ( #277, #283 ) ;
#65 = AXIS2_PLACEMENT_3D ( 'NONE', #273, #61, #294 ) ;
#66 = CC_DESIGN_PERSON_AND_ORGANIZATION_ASSIGNMENT ( #97, #68, ( #53 ) ) ;
#67 = CARTESIAN_POINT ( 'NONE',  ( 1.250000000000000000, 1.530808498934191571E-16, 1.199999999999999956 ) ) ;
#68 = PERSON_AND_ORGANIZATION_ROLE ( 'classification_officer' ) ;
#69 = DIRECTION ( 'NONE',  ( 0.000000000000000000, 0.000000000000000000, -1.000000000000000000 ) ) ;
#70 = DATE_AND_TIME ( #1, #278 ) ;
#71 = FACE_OUTER_BOUND ( 'NONE', #144, .T. ) ;
#72 =( GEOMETRIC_REPRESENTATION_CONTEXT ( 3 ) GLOBAL_UNCERTAINTY_ASSIGNED_CONTEXT ( ( #160 ) ) GLOBAL_UNIT_ASSIGNED_CONTEXT ( ( #94, #234, #18 ) ) REPRESENTATION_CONTEXT ( 'NONE', 'WORKASPACE' ) );
#73 = EDGE_CURVE ( 'NONE', #93, #292, #142, .T. ) ;
#74 = DIRECTION ( 'NONE',  ( -1.000000000000000000, 0.000000000000000000, 0.000000000000000000 ) ) ;
#75 = DIRECTION ( 'NONE',  ( 1.000000000000000000, 0.000000000000000000, 0.000000000000000000 ) ) ;
#76 = EDGE_CURVE ( 'NONE', #292, #93, #188, .T. ) ;
#77 = EDGE_LOOP ( 'NONE', ( #103, #3, #164, #2 ) ) ;
#78 = DIRECTION ( 'NONE',  ( -0.000000000000000000, -0.000000000000000000, -1.000000000000000000 ) ) ;
#79 = PRODUCT_DEFINITION_SHAPE ( 'NONE', 'NONE',  #85 ) ;
#80 = DIRECTION ( 'NONE',  ( 1.000000000000000000, 0.000000000000000000, 0.000000000000000000 ) ) ;
#81 = CARTESIAN_POINT ( 'NONE',  ( 0.000000000000000000, 0.000000000000000000, 1.199999999999999956 ) ) ;
#82 = VECTOR ( 'NONE', #78, 1000.000000000000000 ) ;
#83 = DIRECTION ( 'NONE',  ( 0.000000000000000000, 0.000000000000000000, 1.000000000000000000 ) ) ;
#84 = CALENDAR_DATE ( 2022, 20, 6 ) ;
#85 = PRODUCT_DEFINITION ( 'NEZNÁMÝ', '', #158, #252 ) ;
#86 = ORIENTED_EDGE ( 'NONE', *, *, #120, .F. ) ;
#87 = DIRECTION ( 'NONE',  ( 1.000000000000000000, 0.000000000000000000, 0.000000000000000000 ) ) ;
#88 = AXIS2_PLACEMENT_3D ( 'NONE', #151, #130, #248 ) ;
#89 = APPLICATION_PROTOCOL_DEFINITION ( 'international standard', 'config_control_design', 1994, #204 ) ;
#90 = CC_DESIGN_DATE_AND_TIME_ASSIGNMENT ( #166, #181, ( #85 ) ) ;
#91 = CARTESIAN_POINT ( 'NONE',  ( 0.6999999999999999556, 0.000000000000000000, 1.199999999999999289 ) ) ;
#92 = AXIS2_PLACEMENT_3D ( 'NONE', #190, #218, #128 ) ;
#93 = VERTEX_POINT ( 'NONE', #154 ) ;
#94 =( LENGTH_UNIT ( ) NAMED_UNIT ( * ) SI_UNIT ( .MILLI., .METRE. ) );
#95 = VERTEX_POINT ( 'NONE', #298 ) ;
#96 = ORIENTED_EDGE ( 'NONE', *, *, #109, .T. ) ;
#97 = PERSON_AND_ORGANIZATION ( #117, #118 ) ;
#98 = CARTESIAN_POINT ( 'NONE',  ( -0.5000000000000000000, 0.000000000000000000, 101.2000000000000171 ) ) ;
#99 = TOROIDAL_SURFACE ( 'NONE', #42, 0.6999999999999999556, 0.2000000000000000111 ) ;
#100 = SECURITY_CLASSIFICATION_LEVEL ( 'unclassified' ) ;
#101 = ORIENTED_EDGE ( 'NONE', *, *, #162, .F. ) ;
#102 = EDGE_CURVE ( 'NONE', #196, #95, #26, .T. ) ;
#103 = ORIENTED_EDGE ( 'NONE', *, *, #185, .F. ) ;
#104 = AXIS2_PLACEMENT_3D ( 'NONE', #4, #288, #69 ) ;
#105 = CC_DESIGN_PERSON_AND_ORGANIZATION_ASSIGNMENT ( #260, #127, ( #158 ) ) ;
#106 = FACE_OUTER_BOUND ( 'NONE', #289, .T. ) ;
#107 = DIRECTION ( 'NONE',  ( 0.000000000000000000, 0.000000000000000000, 1.000000000000000000 ) ) ;
#108 = LINE ( 'NONE', #269, #175 ) ;
#109 = EDGE_CURVE ( 'NONE', #27, #265, #63, .T. ) ;
#110 = FACE_OUTER_BOUND ( 'NONE', #264, .T. ) ;
#111 = CIRCLE ( 'NONE', #280, 0.6999999999999999556 ) ;
#112 = CC_DESIGN_APPROVAL ( #33, ( #85 ) ) ;
#113 = CARTESIAN_POINT ( 'NONE',  ( 1.250000000000000000, 1.530808498934191571E-16, 0.000000000000000000 ) ) ;
#114 = EDGE_CURVE ( 'NONE', #265, #27, #111, .T. ) ;
#115 = CARTESIAN_POINT ( 'NONE',  ( 0.000000000000000000, 0.000000000000000000, 101.2000000000000171 ) ) ;
#116 = MECHANICAL_CONTEXT ( 'NONE', #184, 'mechanical' ) ;
#117 = PERSON ( 'NEURÈENÝ', 'NEURÈENÝ', 'NEURÈENÝ', ('NEURÈENÝ'), ('NEURÈENÝ'), ('NEURÈENÝ') ) ;
#118 = ORGANIZATION ( 'NEURÈENÝ', 'NEURÈENÝ', '' ) ;
#119 = PERSON_AND_ORGANIZATION ( #117, #118 ) ;
#120 = EDGE_CURVE ( 'NONE', #150, #291, #35, .T. ) ;
#121 = DIRECTION ( 'NONE',  ( 0.000000000000000000, 0.000000000000000000, 1.000000000000000000 ) ) ;
#122 = EDGE_LOOP ( 'NONE', ( #193, #242 ) ) ;
#123 = ORIENTED_EDGE ( 'NONE', *, *, #302, .T. ) ;
#124 = DIRECTION ( 'NONE',  ( -0.000000000000000000, -0.000000000000000000, -1.000000000000000000 ) ) ;
#125 = PLANE ( 'NONE',  #92 ) ;
#126 = FACE_BOUND ( 'NONE', #241, .T. ) ;
#127 = PERSON_AND_ORGANIZATION_ROLE ( 'design_supplier' ) ;
#128 = DIRECTION ( 'NONE',  ( 1.000000000000000000, 0.000000000000000000, -0.000000000000000000 ) ) ;
#129 = DIRECTION ( 'NONE',  ( 1.000000000000000000, 0.000000000000000000, 0.000000000000000000 ) ) ;
#130 = DIRECTION ( 'NONE',  ( 0.000000000000000000, 0.000000000000000000, 1.000000000000000000 ) ) ;
#131 = AXIS2_PLACEMENT_3D ( 'NONE', #205, #9, #295 ) ;
#132 = CARTESIAN_POINT ( 'NONE',  ( 0.000000000000000000, 0.000000000000000000, 101.2000000000000171 ) ) ;
#133 = DIRECTION ( 'NONE',  ( -0.000000000000000000, -0.000000000000000000, -1.000000000000000000 ) ) ;
#134 = EDGE_CURVE ( 'NONE', #292, #186, #271, .T. ) ;
#135 = CC_DESIGN_SECURITY_CLASSIFICATION ( #53, ( #158 ) ) ;
#136 = PERSON_AND_ORGANIZATION_ROLE ( 'design_owner' ) ;
#137 = APPROVAL_ROLE ( '' ) ;
#138 = CARTESIAN_POINT ( 'NONE',  ( -0.5000000000000000000, 0.000000000000000000, 101.2000000000000171 ) ) ;
#139 = DIRECTION ( 'NONE',  ( 0.000000000000000000, 0.000000000000000000, 1.000000000000000000 ) ) ;
#140 = AXIS2_PLACEMENT_3D ( 'NONE', #270, #180, #246 ) ;
#141 = COORDINATED_UNIVERSAL_TIME_OFFSET ( 1, 0, .AHEAD. ) ;
#142 = CIRCLE ( 'NONE', #287, 1.250000000000000000 ) ;
#143 = ADVANCED_FACE ( 'NONE', ( #155 ), #99, .F. ) ;
#144 = EDGE_LOOP ( 'NONE', ( #86, #282, #304, #217 ) ) ;
#145 = CARTESIAN_POINT ( 'NONE',  ( -0.6999999999999999556, 8.572527594031473190E-17, 1.199999999999999289 ) ) ;
#146 = EDGE_CURVE ( 'NONE', #150, #196, #251, .T. ) ;
#147 = ORIENTED_EDGE ( 'NONE', *, *, #156, .T. ) ;
#148 = CARTESIAN_POINT ( 'NONE',  ( 0.000000000000000000, 0.000000000000000000, 1.199999999999999956 ) ) ;
#149 = CC_DESIGN_APPROVAL ( #10, ( #158 ) ) ;
#150 = VERTEX_POINT ( 'NONE', #39 ) ;
#151 = CARTESIAN_POINT ( 'NONE',  ( 0.000000000000000000, 0.000000000000000000, 101.2000000000000171 ) ) ;
#152 = DIRECTION ( 'NONE',  ( -0.000000000000000000, -0.000000000000000000, -1.000000000000000000 ) ) ;
#153 = CC_DESIGN_APPROVAL ( #268, ( #53 ) ) ;
#154 = CARTESIAN_POINT ( 'NONE',  ( -1.250000000000000000, 0.000000000000000000, 1.199999999999999956 ) ) ;
#155 = FACE_OUTER_BOUND ( 'NONE', #239, .T. ) ;
#156 = EDGE_CURVE ( 'NONE', #286, #186, #227, .T. ) ;
#157 = APPLICATION_PROTOCOL_DEFINITION ( 'international standard', 'config_control_design', 1994, #184 ) ;
#158 = PRODUCT_DEFINITION_FORMATION_WITH_SPECIFIED_SOURCE ( 'LIBOVOLNÝ', '', #297, .NOT_KNOWN. ) ;
#159 = APPROVAL_STATUS ( 'not_yet_approved' ) ;
#160 = UNCERTAINTY_MEASURE_WITH_UNIT (LENGTH_MEASURE( 1.000000000000000082E-05 ), #94, 'distance_accuracy_value', 'NONE');
#161 = PERSON_AND_ORGANIZATION ( #117, #118 ) ;
#162 = EDGE_CURVE ( 'NONE', #93, #286, #108, .T. ) ;
#163 = DIRECTION ( 'NONE',  ( 0.000000000000000000, 0.000000000000000000, 1.000000000000000000 ) ) ;
#164 = ORIENTED_EDGE ( 'NONE', *, *, #19, .T. ) ;
#165 = CIRCLE ( 'NONE', #28, 0.5000000000000000000 ) ;
#166 = DATE_AND_TIME ( #84, #235 ) ;
#167 = CALENDAR_DATE ( 2022, 20, 6 ) ;
#168 = ORIENTED_EDGE ( 'NONE', *, *, #275, .F. ) ;
#169 = CARTESIAN_POINT ( 'NONE',  ( 0.000000000000000000, 0.000000000000000000, 1.199999999999999956 ) ) ;
#170 = DIRECTION ( 'NONE',  ( -1.000000000000000000, 0.000000000000000000, 0.000000000000000000 ) ) ;
#171 = FACE_OUTER_BOUND ( 'NONE', #44, .T. ) ;
#172 = ADVANCED_FACE ( 'NONE', ( #13 ), #34, .T. ) ;
#173 = ORIENTED_EDGE ( 'NONE', *, *, #50, .T. ) ;
#174 = ORIENTED_EDGE ( 'NONE', *, *, #275, .T. ) ;
#175 = VECTOR ( 'NONE', #152, 1000.000000000000000 ) ;
#176 = DIRECTION ( 'NONE',  ( -0.000000000000000000, -0.000000000000000000, -1.000000000000000000 ) ) ;
#177 = CARTESIAN_POINT ( 'NONE',  ( 0.000000000000000000, 0.000000000000000000, 1.199999999999999956 ) ) ;
#178 = CARTESIAN_POINT ( 'NONE',  ( -0.6999999999999999556, 8.572527594031471957E-17, 1.399999999999998579 ) ) ;
#179 = DIRECTION ( 'NONE',  ( 1.000000000000000000, 0.000000000000000000, 0.000000000000000000 ) ) ;
#180 = DIRECTION ( 'NONE',  ( 0.000000000000000000, 0.000000000000000000, 1.000000000000000000 ) ) ;
#181 = DATE_TIME_ROLE ( 'creation_date' ) ;
#182 = DIRECTION ( 'NONE',  ( 0.000000000000000000, 0.000000000000000000, 1.000000000000000000 ) ) ;
#183 = CARTESIAN_POINT ( 'NONE',  ( 0.000000000000000000, 0.000000000000000000, 1.399999999999998579 ) ) ;
#184 = APPLICATION_CONTEXT ( 'configuration controlled 3d designs of mechanical parts and assemblies' ) ;
#185 = EDGE_CURVE ( 'NONE', #95, #27, #262, .T. ) ;
#186 = VERTEX_POINT ( 'NONE', #113 ) ;
#187 = EDGE_LOOP ( 'NONE', ( #123, #30 ) ) ;
#188 = CIRCLE ( 'NONE', #56, 1.250000000000000000 ) ;
#189 = DATE_AND_TIME ( #167, #48 ) ;
#190 = CARTESIAN_POINT ( 'NONE',  ( 0.000000000000000000, 0.000000000000000000, 1.199999999999999956 ) ) ;
#191 = MANIFOLD_SOLID_BREP ( 'Zaoblit1', #230 ) ;
#192 = APPROVAL_STATUS ( 'not_yet_approved' ) ;
#193 = ORIENTED_EDGE ( 'NONE', *, *, #73, .T. ) ;
#194 = APPROVAL_PERSON_ORGANIZATION ( #119, #33, #211 ) ;
#195 = CC_DESIGN_PERSON_AND_ORGANIZATION_ASSIGNMENT ( #281, #300, ( #85 ) ) ;
#196 = VERTEX_POINT ( 'NONE', #12 ) ;
#197 = CARTESIAN_POINT ( 'NONE',  ( 0.000000000000000000, 0.000000000000000000, 101.2000000000000171 ) ) ;
#198 = DIRECTION ( 'NONE',  ( 1.000000000000000000, 0.000000000000000000, 0.000000000000000000 ) ) ;
#199 = PLANE ( 'NONE',  #131 ) ;
#200 = DIRECTION ( 'NONE',  ( -1.000000000000000000, 0.000000000000000000, 0.000000000000000000 ) ) ;
#201 = VECTOR ( 'NONE', #124, 1000.000000000000000 ) ;
#202 = DIRECTION ( 'NONE',  ( -1.000000000000000000, 0.000000000000000000, 0.000000000000000000 ) ) ;
#203 = CIRCLE ( 'NONE', #209, 0.5000000000000000000 ) ;
#204 = APPLICATION_CONTEXT ( 'configuration controlled 3d designs of mechanical parts and assemblies' ) ;
#205 = CARTESIAN_POINT ( 'NONE',  ( 0.000000000000000000, 0.000000000000000000, 0.000000000000000000 ) ) ;
#206 = DATE_AND_TIME ( #303, #58 ) ;
#207 = AXIS2_PLACEMENT_3D ( 'NONE', #169, #6, #170 ) ;
#208 = PERSON_AND_ORGANIZATION ( #117, #118 ) ;
#209 = AXIS2_PLACEMENT_3D ( 'NONE', #115, #163, #236 ) ;
#210 = CARTESIAN_POINT ( 'NONE',  ( 0.000000000000000000, 0.000000000000000000, 0.000000000000000000 ) ) ;
#211 = APPROVAL_ROLE ( '' ) ;
#212 = EDGE_LOOP ( 'NONE', ( #244, #266, #237, #101 ) ) ;
#213 = AXIS2_PLACEMENT_3D ( 'NONE', #178, #38, #247 ) ;
#214 = SHAPE_DEFINITION_REPRESENTATION ( #79, #216 ) ;
#215 = FACE_OUTER_BOUND ( 'NONE', #122, .T. ) ;
#216 = ADVANCED_BREP_SHAPE_REPRESENTATION ( '81c2', ( #191, #307 ), #72 ) ;
#217 = ORIENTED_EDGE ( 'NONE', *, *, #50, .F. ) ;
#218 = DIRECTION ( 'NONE',  ( 0.000000000000000000, 0.000000000000000000, 1.000000000000000000 ) ) ;
#219 = ADVANCED_FACE ( 'NONE', ( #225 ), #293, .F. ) ;
#220 = AXIS2_PLACEMENT_3D ( 'NONE', #231, #226, #37 ) ;
#221 = ORIENTED_EDGE ( 'NONE', *, *, #156, .F. ) ;
#222 = COORDINATED_UNIVERSAL_TIME_OFFSET ( 1, 0, .AHEAD. ) ;
#223 = DIRECTION ( 'NONE',  ( 0.000000000000000000, 0.000000000000000000, 1.000000000000000000 ) ) ;
#224 = CC_DESIGN_PERSON_AND_ORGANIZATION_ASSIGNMENT ( #161, #136, ( #297 ) ) ;
#225 = FACE_OUTER_BOUND ( 'NONE', #77, .T. ) ;
#226 = DIRECTION ( 'NONE',  ( 0.000000000000000000, 0.000000000000000000, 1.000000000000000000 ) ) ;
#227 = CIRCLE ( 'NONE', #140, 1.250000000000000000 ) ;
#228 = DIRECTION ( 'NONE',  ( -0.000000000000000000, -0.000000000000000000, -1.000000000000000000 ) ) ;
#229 = CARTESIAN_POINT ( 'NONE',  ( 0.5000000000000000000, 6.123233995736766036E-17, 101.2000000000000171 ) ) ;
#230 = CLOSED_SHELL ( 'NONE', ( #143, #60, #233, #43, #14, #245, #249, #172, #219 ) ) ;
#231 = CARTESIAN_POINT ( 'NONE',  ( 0.000000000000000000, 0.000000000000000000, 1.399999999999998579 ) ) ;
#232 = APPROVAL_STATUS ( 'not_yet_approved' ) ;
#233 = ADVANCED_FACE ( 'NONE', ( #15 ), #11, .T. ) ;
#234 =( NAMED_UNIT ( * ) PLANE_ANGLE_UNIT ( ) SI_UNIT ( $, .RADIAN. ) );
#235 = LOCAL_TIME ( 12, 26, 1.000000000000000000, #305 ) ;
#236 = DIRECTION ( 'NONE',  ( 1.000000000000000000, 0.000000000000000000, 0.000000000000000000 ) ) ;
#237 = ORIENTED_EDGE ( 'NONE', *, *, #253, .T. ) ;
#238 = CC_DESIGN_DATE_AND_TIME_ASSIGNMENT ( #189, #290, ( #53 ) ) ;
#239 = EDGE_LOOP ( 'NONE', ( #168, #21, #54, #259 ) ) ;
#240 = CYLINDRICAL_SURFACE ( 'NONE', #45, 0.5000000000000000000 ) ;
#241 = EDGE_LOOP ( 'NONE', ( #285, #96 ) ) ;
#242 = ORIENTED_EDGE ( 'NONE', *, *, #76, .T. ) ;
#243 = APPROVAL_PERSON_ORGANIZATION ( #257, #10, #137 ) ;
#244 = ORIENTED_EDGE ( 'NONE', *, *, #76, .F. ) ;
#245 = ADVANCED_FACE ( 'NONE', ( #110 ), #199, .F. ) ;
#246 = DIRECTION ( 'NONE',  ( 1.000000000000000000, 0.000000000000000000, 0.000000000000000000 ) ) ;
#247 = DIRECTION ( 'NONE',  ( -1.000000000000000000, 1.224646799147352714E-16, 0.000000000000000000 ) ) ;
#248 = DIRECTION ( 'NONE',  ( 1.000000000000000000, 0.000000000000000000, -0.000000000000000000 ) ) ;
#249 = ADVANCED_FACE ( 'NONE', ( #106 ), #57, .T. ) ;
#250 = DIRECTION ( 'NONE',  ( -0.000000000000000000, -0.000000000000000000, -1.000000000000000000 ) ) ;
#251 = LINE ( 'NONE', #229, #82 ) ;
#252 = DESIGN_CONTEXT ( 'detailed design', #204, 'design' ) ;
#253 = EDGE_CURVE ( 'NONE', #186, #286, #256, .T. ) ;
#254 = COORDINATED_UNIVERSAL_TIME_OFFSET ( 1, 0, .AHEAD. ) ;
#255 = ORIENTED_EDGE ( 'NONE', *, *, #146, .F. ) ;
#256 = CIRCLE ( 'NONE', #36, 1.250000000000000000 ) ;
#257 = PERSON_AND_ORGANIZATION ( #117, #118 ) ;
#258 = APPROVAL_ROLE ( '' ) ;
#259 = ORIENTED_EDGE ( 'NONE', *, *, #19, .F. ) ;
#260 = PERSON_AND_ORGANIZATION ( #117, #118 ) ;
#261 = LINE ( 'NONE', #98, #201 ) ;
#262 = CIRCLE ( 'NONE', #213, 0.1999999999999999833 ) ;
#263 = CARTESIAN_POINT ( 'NONE',  ( 0.000000000000000000, 0.000000000000000000, 1.199999999999999956 ) ) ;
#264 = EDGE_LOOP ( 'NONE', ( #221, #52 ) ) ;
#265 = VERTEX_POINT ( 'NONE', #91 ) ;
#266 = ORIENTED_EDGE ( 'NONE', *, *, #134, .T. ) ;
#267 = APPROVAL_PERSON_ORGANIZATION ( #25, #268, #258 ) ;
#268 = APPROVAL ( #192, 'NEURÈENÝ' ) ;
#269 = CARTESIAN_POINT ( 'NONE',  ( -1.250000000000000000, 0.000000000000000000, 1.199999999999999956 ) ) ;
#270 = CARTESIAN_POINT ( 'NONE',  ( 0.000000000000000000, 0.000000000000000000, 0.000000000000000000 ) ) ;
#271 = LINE ( 'NONE', #274, #47 ) ;
#272 = AXIS2_PLACEMENT_3D ( 'NONE', #132, #228, #200 ) ;
#273 = CARTESIAN_POINT ( 'NONE',  ( 0.000000000000000000, 0.000000000000000000, 101.2000000000000171 ) ) ;
#274 = CARTESIAN_POINT ( 'NONE',  ( 1.250000000000000000, 1.530808498934191571E-16, 1.199999999999999956 ) ) ;
#275 = EDGE_CURVE ( 'NONE', #95, #196, #165, .T. ) ;
#276 = AXIS2_PLACEMENT_3D ( 'NONE', #81, #250, #198 ) ;
#277 = CALENDAR_DATE ( 2022, 20, 6 ) ;
#278 = LOCAL_TIME ( 12, 26, 1.000000000000000000, #7 ) ;
#279 = CARTESIAN_POINT ( 'NONE',  ( -1.250000000000000000, 0.000000000000000000, 0.000000000000000000 ) ) ;
#280 = AXIS2_PLACEMENT_3D ( 'NONE', #299, #176, #179 ) ;
#281 = PERSON_AND_ORGANIZATION ( #117, #118 ) ;
#282 = ORIENTED_EDGE ( 'NONE', *, *, #146, .T. ) ;
#283 = LOCAL_TIME ( 12, 26, 1.000000000000000000, #141 ) ;
#284 = DIRECTION ( 'NONE',  ( 1.000000000000000000, 0.000000000000000000, 0.000000000000000000 ) ) ;
#285 = ORIENTED_EDGE ( 'NONE', *, *, #114, .T. ) ;
#286 = VERTEX_POINT ( 'NONE', #279 ) ;
#287 = AXIS2_PLACEMENT_3D ( 'NONE', #263, #51, #75 ) ;
#288 = DIRECTION ( 'NONE',  ( 0.000000000000000000, -1.000000000000000000, 0.000000000000000000 ) ) ;
#289 = EDGE_LOOP ( 'NONE', ( #255, #306, #173, #174 ) ) ;
#290 = DATE_TIME_ROLE ( 'classification_date' ) ;
#291 = VERTEX_POINT ( 'NONE', #138 ) ;
#292 = VERTEX_POINT ( 'NONE', #67 ) ;
#293 = TOROIDAL_SURFACE ( 'NONE', #220, 0.6999999999999999556, 0.2000000000000000111 ) ;
#294 = DIRECTION ( 'NONE',  ( 1.000000000000000000, 0.000000000000000000, 0.000000000000000000 ) ) ;
#295 = DIRECTION ( 'NONE',  ( 1.000000000000000000, 0.000000000000000000, -0.000000000000000000 ) ) ;
#296 = CARTESIAN_POINT ( 'NONE',  ( 0.000000000000000000, 0.000000000000000000, 0.000000000000000000 ) ) ;
#297 = PRODUCT ( '81c2', '81c2', '', ( #116 ) ) ;
#298 = CARTESIAN_POINT ( 'NONE',  ( -0.5000000000000000000, 0.000000000000000000, 1.399999999999998579 ) ) ;
#299 = CARTESIAN_POINT ( 'NONE',  ( 0.000000000000000000, 0.000000000000000000, 1.199999999999999956 ) ) ;
#300 = PERSON_AND_ORGANIZATION_ROLE ( 'creator' ) ;
#301 = AXIS2_PLACEMENT_3D ( 'NONE', #177, #133, #202 ) ;
#302 = EDGE_CURVE ( 'NONE', #291, #150, #203, .T. ) ;
#303 = CALENDAR_DATE ( 2022, 20, 6 ) ;
#304 = ORIENTED_EDGE ( 'NONE', *, *, #102, .T. ) ;
#305 = COORDINATED_UNIVERSAL_TIME_OFFSET ( 1, 0, .AHEAD. ) ;
#306 = ORIENTED_EDGE ( 'NONE', *, *, #302, .F. ) ;
#307 = AXIS2_PLACEMENT_3D ( 'NONE', #210, #121, #41 ) ;
ENDSEC;
END-ISO-10303-21;
