ISO-10303-21;
HEADER;
FILE_DESCRIPTION (( 'STEP AP203' ),
    '1' );
FILE_NAME ('747d.STEP',
    '2022-06-20T09:23:33',
    ( '' ),
    ( '' ),
    'SwSTEP 2.0',
    'SolidWorks 2019',
    '' );
FILE_SCHEMA (( 'CONFIG_CONTROL_DESIGN' ));
ENDSEC;

DATA;
#1 = LINE ( 'NONE', #286, #31 ) ;
#2 = LINE ( 'NONE', #119, #281 ) ;
#3 = FACE_OUTER_BOUND ( 'NONE', #206, .T. ) ;
#4 = LOCAL_TIME ( 11, 23, 33.00000000000000000, #213 ) ;
#5 = DATE_TIME_ROLE ( 'classification_date' ) ;
#6 = ADVANCED_FACE ( 'NONE', ( #164 ), #155, .F. ) ;
#7 = ADVANCED_FACE ( 'NONE', ( #278 ), #68, .T. ) ;
#8 = ORIENTED_EDGE ( 'NONE', *, *, #163, .F. ) ;
#9 = AXIS2_PLACEMENT_3D ( 'NONE', #288, #263, #51 ) ;
#10 = ORIENTED_EDGE ( 'NONE', *, *, #185, .F. ) ;
#11 = TOROIDAL_SURFACE ( 'NONE', #307, 8.200000000000001066, 0.2000000000000000111 ) ;
#12 = CIRCLE ( 'NONE', #98, 0.1999999999999996503 ) ;
#13 = CARTESIAN_POINT ( 'NONE',  ( 0.000000000000000000, 0.000000000000000000, 507.0000000000000000 ) ) ;
#14 = DIRECTION ( 'NONE',  ( 1.000000000000000000, 0.000000000000000000, 0.000000000000000000 ) ) ;
#15 = DIRECTION ( 'NONE',  ( 1.000000000000000000, 0.000000000000000000, 0.000000000000000000 ) ) ;
#16 = APPROVAL_PERSON_ORGANIZATION ( #260, #301, #93 ) ;
#17 = DIRECTION ( 'NONE',  ( -0.000000000000000000, -0.000000000000000000, -1.000000000000000000 ) ) ;
#18 = DATE_AND_TIME ( #108, #200 ) ;
#19 = CARTESIAN_POINT ( 'NONE',  ( 0.000000000000000000, 0.000000000000000000, 507.0000000000000000 ) ) ;
#20 = PERSON_AND_ORGANIZATION ( #190, #153 ) ;
#21 = PRODUCT_DEFINITION ( 'NEZNÁMÝ', '', #228, #157 ) ;
#22 = DIRECTION ( 'NONE',  ( 1.000000000000000000, 0.000000000000000000, 0.000000000000000000 ) ) ;
#23 = PERSON_AND_ORGANIZATION_ROLE ( 'creator' ) ;
#24 = DIRECTION ( 'NONE',  ( -0.000000000000000000, -0.000000000000000000, -1.000000000000000000 ) ) ;
#25 = LOCAL_TIME ( 11, 23, 33.00000000000000000, #297 ) ;
#26 = DIRECTION ( 'NONE',  ( 0.000000000000000000, 0.000000000000000000, 1.000000000000000000 ) ) ;
#27 = APPROVAL_ROLE ( '' ) ;
#28 = FACE_OUTER_BOUND ( 'NONE', #101, .T. ) ;
#29 = EDGE_CURVE ( 'NONE', #226, #280, #161, .T. ) ;
#30 = LINE ( 'NONE', #235, #52 ) ;
#31 = VECTOR ( 'NONE', #171, 1000.000000000000000 ) ;
#32 = LOCAL_TIME ( 11, 23, 33.00000000000000000, #50 ) ;
#33 = CALENDAR_DATE ( 2022, 20, 6 ) ;
#34 = AXIS2_PLACEMENT_3D ( 'NONE', #298, #133, #14 ) ;
#35 = VERTEX_POINT ( 'NONE', #165 ) ;
#36 = MANIFOLD_SOLID_BREP ( 'Zaoblit1', #292 ) ;
#37 = EDGE_LOOP ( 'NONE', ( #300, #267, #125, #187 ) ) ;
#38 = ORIENTED_EDGE ( 'NONE', *, *, #194, .F. ) ;
#39 = SECURITY_CLASSIFICATION ( '', '', #113 ) ;
#40 = ORIENTED_EDGE ( 'NONE', *, *, #180, .T. ) ;
#41 = APPLICATION_PROTOCOL_DEFINITION ( 'international standard', 'config_control_design', 1994, #124 ) ;
#42 = DIRECTION ( 'NONE',  ( 1.000000000000000000, 0.000000000000000000, 0.000000000000000000 ) ) ;
#43 = ORIENTED_EDGE ( 'NONE', *, *, #103, .F. ) ;
#44 = DATE_AND_TIME ( #167, #135 ) ;
#45 = FACE_OUTER_BOUND ( 'NONE', #123, .T. ) ;
#46 = APPROVAL_ROLE ( '' ) ;
#47 = ORIENTED_EDGE ( 'NONE', *, *, #29, .T. ) ;
#48 = DATE_TIME_ROLE ( 'creation_date' ) ;
#49 = DIRECTION ( 'NONE',  ( -0.000000000000000000, -0.000000000000000000, -1.000000000000000000 ) ) ;
#50 = COORDINATED_UNIVERSAL_TIME_OFFSET ( 1, 0, .AHEAD. ) ;
#51 = DIRECTION ( 'NONE',  ( -1.000000000000000000, 0.000000000000000000, 0.000000000000000000 ) ) ;
#52 = VECTOR ( 'NONE', #201, 1000.000000000000000 ) ;
#53 = DIRECTION ( 'NONE',  ( 1.000000000000000000, 0.000000000000000000, 0.000000000000000000 ) ) ;
#54 = ADVANCED_FACE ( 'NONE', ( #273 ), #69, .F. ) ;
#55 = AXIS2_PLACEMENT_3D ( 'NONE', #168, #259, #96 ) ;
#56 = CARTESIAN_POINT ( 'NONE',  ( 0.000000000000000000, 0.000000000000000000, 7.000000000000000000 ) ) ;
#57 = CIRCLE ( 'NONE', #67, 8.000000000000000000 ) ;
#58 = AXIS2_PLACEMENT_3D ( 'NONE', #207, #17, #251 ) ;
#59 = AXIS2_PLACEMENT_3D ( 'NONE', #19, #305, #193 ) ;
#60 = ORIENTED_EDGE ( 'NONE', *, *, #185, .T. ) ;
#61 = EDGE_CURVE ( 'NONE', #104, #276, #244, .T. ) ;
#62 = PRODUCT_DEFINITION_SHAPE ( 'NONE', 'NONE',  #21 ) ;
#63 = ORIENTED_EDGE ( 'NONE', *, *, #163, .T. ) ;
#64 = ADVANCED_BREP_SHAPE_REPRESENTATION ( '747d', ( #36, #246 ), #80 ) ;
#65 = ADVANCED_FACE ( 'NONE', ( #88 ), #253, .T. ) ;
#66 =( LENGTH_UNIT ( ) NAMED_UNIT ( * ) SI_UNIT ( .MILLI., .METRE. ) );
#67 = AXIS2_PLACEMENT_3D ( 'NONE', #100, #197, #283 ) ;
#68 = PLANE ( 'NONE',  #169 ) ;
#69 = PLANE ( 'NONE',  #76 ) ;
#70 = CARTESIAN_POINT ( 'NONE',  ( 0.000000000000000000, 0.000000000000000000, 7.000000000000000000 ) ) ;
#71 = PERSON_AND_ORGANIZATION ( #190, #153 ) ;
#72 = CARTESIAN_POINT ( 'NONE',  ( 8.200000000000001066, 0.000000000000000000, 6.999999999999992006 ) ) ;
#73 = CC_DESIGN_PERSON_AND_ORGANIZATION_ASSIGNMENT ( #138, #23, ( #228 ) ) ;
#74 = MECHANICAL_CONTEXT ( 'NONE', #192, 'mechanical' ) ;
#75 = DIRECTION ( 'NONE',  ( 0.000000000000000000, 0.000000000000000000, 1.000000000000000000 ) ) ;
#76 = AXIS2_PLACEMENT_3D ( 'NONE', #274, #109, #303 ) ;
#77 = CARTESIAN_POINT ( 'NONE',  ( 0.000000000000000000, 0.000000000000000000, 7.199999999999984190 ) ) ;
#78 = APPROVAL ( #290, 'NEURÈENÝ' ) ;
#79 = CARTESIAN_POINT ( 'NONE',  ( 0.000000000000000000, 0.000000000000000000, 7.199999999999984190 ) ) ;
#80 =( GEOMETRIC_REPRESENTATION_CONTEXT ( 3 ) GLOBAL_UNCERTAINTY_ASSIGNED_CONTEXT ( ( #175 ) ) GLOBAL_UNIT_ASSIGNED_CONTEXT ( ( #66, #159, #196 ) ) REPRESENTATION_CONTEXT ( 'NONE', 'WORKASPACE' ) );
#81 = CARTESIAN_POINT ( 'NONE',  ( -11.00000000000000000, 0.000000000000000000, 7.000000000000000000 ) ) ;
#82 = EDGE_CURVE ( 'NONE', #220, #104, #12, .T. ) ;
#83 = AXIS2_PLACEMENT_3D ( 'NONE', #199, #172, #15 ) ;
#84 = AXIS2_PLACEMENT_3D ( 'NONE', #233, #256, #85 ) ;
#85 = DIRECTION ( 'NONE',  ( 1.000000000000000000, 0.000000000000000000, 0.000000000000000000 ) ) ;
#86 = PRODUCT_RELATED_PRODUCT_CATEGORY ( 'detail', '', ( #289 ) ) ;
#87 = COORDINATED_UNIVERSAL_TIME_OFFSET ( 1, 0, .AHEAD. ) ;
#88 = FACE_OUTER_BOUND ( 'NONE', #181, .T. ) ;
#89 = AXIS2_PLACEMENT_3D ( 'NONE', #191, #279, #183 ) ;
#90 = EDGE_LOOP ( 'NONE', ( #222, #249 ) ) ;
#91 = APPROVAL_STATUS ( 'not_yet_approved' ) ;
#92 = DIRECTION ( 'NONE',  ( 0.000000000000000000, 0.000000000000000000, -1.000000000000000000 ) ) ;
#93 = APPROVAL_ROLE ( '' ) ;
#94 = DIRECTION ( 'NONE',  ( 0.000000000000000000, 0.000000000000000000, 1.000000000000000000 ) ) ;
#95 = AXIS2_PLACEMENT_3D ( 'NONE', #264, #215, #53 ) ;
#96 = DIRECTION ( 'NONE',  ( 1.000000000000000000, 0.000000000000000000, 0.000000000000000000 ) ) ;
#97 = DIRECTION ( 'NONE',  ( 0.000000000000000000, 0.000000000000000000, 1.000000000000000000 ) ) ;
#98 = AXIS2_PLACEMENT_3D ( 'NONE', #224, #111, #92 ) ;
#99 = DIRECTION ( 'NONE',  ( -0.000000000000000000, -0.000000000000000000, -1.000000000000000000 ) ) ;
#100 = CARTESIAN_POINT ( 'NONE',  ( 0.000000000000000000, 0.000000000000000000, 507.0000000000000000 ) ) ;
#101 = EDGE_LOOP ( 'NONE', ( #204, #160, #296, #38 ) ) ;
#102 = APPROVAL_PERSON_ORGANIZATION ( #148, #78, #27 ) ;
#103 = EDGE_CURVE ( 'NONE', #280, #226, #129, .T. ) ;
#104 = VERTEX_POINT ( 'NONE', #72 ) ;
#105 = AXIS2_PLACEMENT_3D ( 'NONE', #144, #26, #146 ) ;
#106 = ORIENTED_EDGE ( 'NONE', *, *, #269, .F. ) ;
#107 = ORIENTED_EDGE ( 'NONE', *, *, #266, .T. ) ;
#108 = CALENDAR_DATE ( 2022, 20, 6 ) ;
#109 = DIRECTION ( 'NONE',  ( 0.000000000000000000, 0.000000000000000000, 1.000000000000000000 ) ) ;
#110 = CARTESIAN_POINT ( 'NONE',  ( 0.000000000000000000, 0.000000000000000000, 0.000000000000000000 ) ) ;
#111 = DIRECTION ( 'NONE',  ( 0.000000000000000000, -1.000000000000000000, 0.000000000000000000 ) ) ;
#112 = ADVANCED_FACE ( 'NONE', ( #45 ), #137, .T. ) ;
#113 = SECURITY_CLASSIFICATION_LEVEL ( 'unclassified' ) ;
#114 = ORIENTED_EDGE ( 'NONE', *, *, #141, .T. ) ;
#115 = CYLINDRICAL_SURFACE ( 'NONE', #243, 11.00000000000000000 ) ;
#116 = PERSON_AND_ORGANIZATION ( #190, #153 ) ;
#117 = AXIS2_PLACEMENT_3D ( 'NONE', #118, #24, #22 ) ;
#118 = CARTESIAN_POINT ( 'NONE',  ( 0.000000000000000000, 0.000000000000000000, 7.000000000000000000 ) ) ;
#119 = CARTESIAN_POINT ( 'NONE',  ( -8.000000000000000000, 0.000000000000000000, 507.0000000000000000 ) ) ;
#120 = PLANE ( 'NONE',  #105 ) ;
#121 = CARTESIAN_POINT ( 'NONE',  ( -8.000000000000000000, 0.000000000000000000, 507.0000000000000000 ) ) ;
#122 = APPROVAL_DATE_TIME ( #285, #78 ) ;
#123 = EDGE_LOOP ( 'NONE', ( #8, #60, #189, #291 ) ) ;
#124 = APPLICATION_CONTEXT ( 'configuration controlled 3d designs of mechanical parts and assemblies' ) ;
#125 = ORIENTED_EDGE ( 'NONE', *, *, #61, .F. ) ;
#126 = CC_DESIGN_PERSON_AND_ORGANIZATION_ASSIGNMENT ( #71, #299, ( #289 ) ) ;
#127 = CIRCLE ( 'NONE', #89, 11.00000000000000000 ) ;
#128 = DIRECTION ( 'NONE',  ( 0.000000000000000000, 0.000000000000000000, 1.000000000000000000 ) ) ;
#129 = CIRCLE ( 'NONE', #84, 11.00000000000000000 ) ;
#130 = COORDINATED_UNIVERSAL_TIME_OFFSET ( 1, 0, .AHEAD. ) ;
#131 = CARTESIAN_POINT ( 'NONE',  ( 0.000000000000000000, 0.000000000000000000, 7.199999999999984190 ) ) ;
#132 = CARTESIAN_POINT ( 'NONE',  ( 11.00000000000000000, 1.347111479062088405E-15, 0.000000000000000000 ) ) ;
#133 = DIRECTION ( 'NONE',  ( 0.000000000000000000, 0.000000000000000000, 1.000000000000000000 ) ) ;
#134 = CC_DESIGN_PERSON_AND_ORGANIZATION_ASSIGNMENT ( #116, #211, ( #39 ) ) ;
#135 = LOCAL_TIME ( 11, 23, 33.00000000000000000, #87 ) ;
#136 = PERSON_AND_ORGANIZATION_ROLE ( 'design_supplier' ) ;
#137 = CYLINDRICAL_SURFACE ( 'NONE', #59, 8.000000000000000000 ) ;
#138 = PERSON_AND_ORGANIZATION ( #190, #153 ) ;
#139 = AXIS2_PLACEMENT_3D ( 'NONE', #131, #94, #42 ) ;
#140 = EDGE_LOOP ( 'NONE', ( #182, #106, #205, #176 ) ) ;
#141 = EDGE_CURVE ( 'NONE', #210, #35, #248, .T. ) ;
#142 = DIRECTION ( 'NONE',  ( -1.000000000000000000, 0.000000000000000000, 0.000000000000000000 ) ) ;
#143 = CIRCLE ( 'NONE', #166, 8.000000000000000000 ) ;
#144 = CARTESIAN_POINT ( 'NONE',  ( 0.000000000000000000, 0.000000000000000000, 7.000000000000000000 ) ) ;
#145 = FACE_BOUND ( 'NONE', #90, .T. ) ;
#146 = DIRECTION ( 'NONE',  ( 1.000000000000000000, 0.000000000000000000, -0.000000000000000000 ) ) ;
#147 = ADVANCED_FACE ( 'NONE', ( #28 ), #115, .T. ) ;
#148 = PERSON_AND_ORGANIZATION ( #190, #153 ) ;
#149 = CC_DESIGN_APPROVAL ( #301, ( #21 ) ) ;
#150 = CALENDAR_DATE ( 2022, 20, 6 ) ;
#151 = VERTEX_POINT ( 'NONE', #216 ) ;
#152 = ORIENTED_EDGE ( 'NONE', *, *, #294, .T. ) ;
#153 = ORGANIZATION ( 'NEURÈENÝ', 'NEURÈENÝ', '' ) ;
#154 = CC_DESIGN_APPROVAL ( #78, ( #39 ) ) ;
#155 = TOROIDAL_SURFACE ( 'NONE', #139, 8.200000000000001066, 0.2000000000000000111 ) ;
#156 = EDGE_LOOP ( 'NONE', ( #40, #152 ) ) ;
#157 = DESIGN_CONTEXT ( 'detailed design', #124, 'design' ) ;
#158 = DIRECTION ( 'NONE',  ( 1.000000000000000000, 0.000000000000000000, -0.000000000000000000 ) ) ;
#159 =( NAMED_UNIT ( * ) PLANE_ANGLE_UNIT ( ) SI_UNIT ( $, .RADIAN. ) );
#160 = ORIENTED_EDGE ( 'NONE', *, *, #237, .T. ) ;
#161 = CIRCLE ( 'NONE', #34, 11.00000000000000000 ) ;
#162 = CARTESIAN_POINT ( 'NONE',  ( -8.200000000000001066, 1.004210375300829674E-15, 6.999999999999992006 ) ) ;
#163 = EDGE_CURVE ( 'NONE', #35, #210, #57, .T. ) ;
#164 = FACE_OUTER_BOUND ( 'NONE', #140, .T. ) ;
#165 = CARTESIAN_POINT ( 'NONE',  ( 8.000000000000000000, 9.797174393178825657E-16, 507.0000000000000000 ) ) ;
#166 = AXIS2_PLACEMENT_3D ( 'NONE', #77, #75, #287 ) ;
#167 = CALENDAR_DATE ( 2022, 20, 6 ) ;
#168 = CARTESIAN_POINT ( 'NONE',  ( 0.000000000000000000, 0.000000000000000000, 507.0000000000000000 ) ) ;
#169 = AXIS2_PLACEMENT_3D ( 'NONE', #13, #128, #158 ) ;
#170 = LINE ( 'NONE', #81, #270 ) ;
#171 = DIRECTION ( 'NONE',  ( -0.000000000000000000, -0.000000000000000000, -1.000000000000000000 ) ) ;
#172 = DIRECTION ( 'NONE',  ( 0.000000000000000000, 0.000000000000000000, 1.000000000000000000 ) ) ;
#173 = CARTESIAN_POINT ( 'NONE',  ( 8.000000000000000000, 9.797174393178825657E-16, 7.199999999999984190 ) ) ;
#174 = EDGE_CURVE ( 'NONE', #250, #220, #143, .T. ) ;
#175 = UNCERTAINTY_MEASURE_WITH_UNIT (LENGTH_MEASURE( 1.000000000000000082E-05 ), #66, 'distance_accuracy_value', 'NONE');
#176 = ORIENTED_EDGE ( 'NONE', *, *, #214, .F. ) ;
#177 = ORIENTED_EDGE ( 'NONE', *, *, #141, .F. ) ;
#178 = CC_DESIGN_APPROVAL ( #247, ( #228 ) ) ;
#179 = CC_DESIGN_SECURITY_CLASSIFICATION ( #39, ( #228 ) ) ;
#180 = EDGE_CURVE ( 'NONE', #151, #184, #195, .T. ) ;
#181 = EDGE_LOOP ( 'NONE', ( #202, #271, #295, #47 ) ) ;
#182 = ORIENTED_EDGE ( 'NONE', *, *, #272, .F. ) ;
#183 = DIRECTION ( 'NONE',  ( 1.000000000000000000, 0.000000000000000000, 0.000000000000000000 ) ) ;
#184 = VERTEX_POINT ( 'NONE', #240 ) ;
#185 = EDGE_CURVE ( 'NONE', #35, #220, #30, .T. ) ;
#186 = DIRECTION ( 'NONE',  ( -1.000000000000000000, 1.224646799147353207E-16, 0.000000000000000000 ) ) ;
#187 = ORIENTED_EDGE ( 'NONE', *, *, #82, .F. ) ;
#188 = APPROVAL_DATE_TIME ( #302, #247 ) ;
#189 = ORIENTED_EDGE ( 'NONE', *, *, #269, .T. ) ;
#190 = PERSON ( 'NEURÈENÝ', 'NEURÈENÝ', 'NEURÈENÝ', ('NEURÈENÝ'), ('NEURÈENÝ'), ('NEURÈENÝ') ) ;
#191 = CARTESIAN_POINT ( 'NONE',  ( 0.000000000000000000, 0.000000000000000000, 7.000000000000000000 ) ) ;
#192 = APPLICATION_CONTEXT ( 'configuration controlled 3d designs of mechanical parts and assemblies' ) ;
#193 = DIRECTION ( 'NONE',  ( -1.000000000000000000, 0.000000000000000000, 0.000000000000000000 ) ) ;
#194 = EDGE_CURVE ( 'NONE', #151, #226, #170, .T. ) ;
#195 = CIRCLE ( 'NONE', #95, 11.00000000000000000 ) ;
#196 =( NAMED_UNIT ( * ) SI_UNIT ( $, .STERADIAN. ) SOLID_ANGLE_UNIT ( ) );
#197 = DIRECTION ( 'NONE',  ( 0.000000000000000000, 0.000000000000000000, 1.000000000000000000 ) ) ;
#198 = DIRECTION ( 'NONE',  ( 1.000000000000000000, 0.000000000000000000, 0.000000000000000000 ) ) ;
#199 = CARTESIAN_POINT ( 'NONE',  ( 0.000000000000000000, 0.000000000000000000, 7.199999999999984190 ) ) ;
#200 = LOCAL_TIME ( 11, 23, 33.00000000000000000, #130 ) ;
#201 = DIRECTION ( 'NONE',  ( -0.000000000000000000, -0.000000000000000000, -1.000000000000000000 ) ) ;
#202 = ORIENTED_EDGE ( 'NONE', *, *, #237, .F. ) ;
#203 = CC_DESIGN_DATE_AND_TIME_ASSIGNMENT ( #242, #5, ( #39 ) ) ;
#204 = ORIENTED_EDGE ( 'NONE', *, *, #294, .F. ) ;
#205 = ORIENTED_EDGE ( 'NONE', *, *, #82, .T. ) ;
#206 = EDGE_LOOP ( 'NONE', ( #10, #177, #107, #268 ) ) ;
#207 = CARTESIAN_POINT ( 'NONE',  ( 0.000000000000000000, 0.000000000000000000, 7.000000000000000000 ) ) ;
#208 = CIRCLE ( 'NONE', #252, 0.2000000000000005107 ) ;
#209 = PERSON_AND_ORGANIZATION_ROLE ( 'creator' ) ;
#210 = VERTEX_POINT ( 'NONE', #121 ) ;
#211 = PERSON_AND_ORGANIZATION_ROLE ( 'classification_officer' ) ;
#212 = ORIENTED_EDGE ( 'NONE', *, *, #29, .F. ) ;
#213 = COORDINATED_UNIVERSAL_TIME_OFFSET ( 1, 0, .AHEAD. ) ;
#214 = EDGE_CURVE ( 'NONE', #276, #104, #293, .T. ) ;
#215 = DIRECTION ( 'NONE',  ( 0.000000000000000000, 0.000000000000000000, 1.000000000000000000 ) ) ;
#216 = CARTESIAN_POINT ( 'NONE',  ( -11.00000000000000000, 0.000000000000000000, 7.000000000000000000 ) ) ;
#217 = CC_DESIGN_DATE_AND_TIME_ASSIGNMENT ( #44, #48, ( #21 ) ) ;
#218 = CARTESIAN_POINT ( 'NONE',  ( -11.00000000000000000, 0.000000000000000000, 0.000000000000000000 ) ) ;
#219 = CC_DESIGN_PERSON_AND_ORGANIZATION_ASSIGNMENT ( #225, #209, ( #21 ) ) ;
#220 = VERTEX_POINT ( 'NONE', #173 ) ;
#221 = CIRCLE ( 'NONE', #83, 8.000000000000000000 ) ;
#222 = ORIENTED_EDGE ( 'NONE', *, *, #61, .T. ) ;
#223 = APPROVAL_PERSON_ORGANIZATION ( #20, #247, #46 ) ;
#224 = CARTESIAN_POINT ( 'NONE',  ( 8.200000000000001066, 0.000000000000000000, 7.199999999999984190 ) ) ;
#225 = PERSON_AND_ORGANIZATION ( #190, #153 ) ;
#226 = VERTEX_POINT ( 'NONE', #218 ) ;
#227 = DIRECTION ( 'NONE',  ( 1.000000000000000000, 0.000000000000000000, 0.000000000000000000 ) ) ;
#228 = PRODUCT_DEFINITION_FORMATION_WITH_SPECIFIED_SOURCE ( 'LIBOVOLNÝ', '', #289, .NOT_KNOWN. ) ;
#229 = DIRECTION ( 'NONE',  ( 1.000000000000000000, 0.000000000000000000, 0.000000000000000000 ) ) ;
#230 = DIRECTION ( 'NONE',  ( -0.000000000000000000, -0.000000000000000000, -1.000000000000000000 ) ) ;
#231 = ADVANCED_FACE ( 'NONE', ( #306 ), #11, .F. ) ;
#232 = APPROVAL_DATE_TIME ( #18, #301 ) ;
#233 = CARTESIAN_POINT ( 'NONE',  ( 0.000000000000000000, 0.000000000000000000, 0.000000000000000000 ) ) ;
#234 = CALENDAR_DATE ( 2022, 20, 6 ) ;
#235 = CARTESIAN_POINT ( 'NONE',  ( 8.000000000000000000, 9.797174393178825657E-16, 507.0000000000000000 ) ) ;
#236 = CYLINDRICAL_SURFACE ( 'NONE', #9, 8.000000000000000000 ) ;
#237 = EDGE_CURVE ( 'NONE', #184, #280, #1, .T. ) ;
#238 = SHAPE_DEFINITION_REPRESENTATION ( #62, #64 ) ;
#239 = FACE_OUTER_BOUND ( 'NONE', #156, .T. ) ;
#240 = CARTESIAN_POINT ( 'NONE',  ( 11.00000000000000000, 1.347111479062088405E-15, 7.000000000000000000 ) ) ;
#241 = ADVANCED_FACE ( 'NONE', ( #3 ), #236, .T. ) ;
#242 = DATE_AND_TIME ( #150, #25 ) ;
#243 = AXIS2_PLACEMENT_3D ( 'NONE', #56, #261, #142 ) ;
#244 = CIRCLE ( 'NONE', #284, 8.200000000000001066 ) ;
#245 = EDGE_LOOP ( 'NONE', ( #114, #63 ) ) ;
#246 = AXIS2_PLACEMENT_3D ( 'NONE', #110, #255, #229 ) ;
#247 = APPROVAL ( #258, 'NEURÈENÝ' ) ;
#248 = CIRCLE ( 'NONE', #55, 8.000000000000000000 ) ;
#249 = ORIENTED_EDGE ( 'NONE', *, *, #214, .T. ) ;
#250 = VERTEX_POINT ( 'NONE', #265 ) ;
#251 = DIRECTION ( 'NONE',  ( -1.000000000000000000, 0.000000000000000000, 0.000000000000000000 ) ) ;
#252 = AXIS2_PLACEMENT_3D ( 'NONE', #304, #275, #186 ) ;
#253 = CYLINDRICAL_SURFACE ( 'NONE', #58, 11.00000000000000000 ) ;
#254 = EDGE_LOOP ( 'NONE', ( #212, #43 ) ) ;
#255 = DIRECTION ( 'NONE',  ( 0.000000000000000000, 0.000000000000000000, 1.000000000000000000 ) ) ;
#256 = DIRECTION ( 'NONE',  ( 0.000000000000000000, 0.000000000000000000, 1.000000000000000000 ) ) ;
#257 = ADVANCED_FACE ( 'NONE', ( #145, #239 ), #120, .T. ) ;
#258 = APPROVAL_STATUS ( 'not_yet_approved' ) ;
#259 = DIRECTION ( 'NONE',  ( 0.000000000000000000, 0.000000000000000000, 1.000000000000000000 ) ) ;
#260 = PERSON_AND_ORGANIZATION ( #190, #153 ) ;
#261 = DIRECTION ( 'NONE',  ( -0.000000000000000000, -0.000000000000000000, -1.000000000000000000 ) ) ;
#262 = CC_DESIGN_PERSON_AND_ORGANIZATION_ASSIGNMENT ( #277, #136, ( #228 ) ) ;
#263 = DIRECTION ( 'NONE',  ( -0.000000000000000000, -0.000000000000000000, -1.000000000000000000 ) ) ;
#264 = CARTESIAN_POINT ( 'NONE',  ( 0.000000000000000000, 0.000000000000000000, 7.000000000000000000 ) ) ;
#265 = CARTESIAN_POINT ( 'NONE',  ( -8.000000000000000000, 0.000000000000000000, 7.199999999999984190 ) ) ;
#266 = EDGE_CURVE ( 'NONE', #210, #250, #2, .T. ) ;
#267 = ORIENTED_EDGE ( 'NONE', *, *, #272, .T. ) ;
#268 = ORIENTED_EDGE ( 'NONE', *, *, #174, .T. ) ;
#269 = EDGE_CURVE ( 'NONE', #220, #250, #221, .T. ) ;
#270 = VECTOR ( 'NONE', #49, 1000.000000000000000 ) ;
#271 = ORIENTED_EDGE ( 'NONE', *, *, #180, .F. ) ;
#272 = EDGE_CURVE ( 'NONE', #250, #276, #208, .T. ) ;
#273 = FACE_OUTER_BOUND ( 'NONE', #254, .T. ) ;
#274 = CARTESIAN_POINT ( 'NONE',  ( 0.000000000000000000, 0.000000000000000000, 0.000000000000000000 ) ) ;
#275 = DIRECTION ( 'NONE',  ( 1.224646799147353207E-16, 1.000000000000000000, -0.000000000000000000 ) ) ;
#276 = VERTEX_POINT ( 'NONE', #162 ) ;
#277 = PERSON_AND_ORGANIZATION ( #190, #153 ) ;
#278 = FACE_OUTER_BOUND ( 'NONE', #245, .T. ) ;
#279 = DIRECTION ( 'NONE',  ( 0.000000000000000000, 0.000000000000000000, 1.000000000000000000 ) ) ;
#280 = VERTEX_POINT ( 'NONE', #132 ) ;
#281 = VECTOR ( 'NONE', #99, 1000.000000000000000 ) ;
#282 = APPLICATION_PROTOCOL_DEFINITION ( 'international standard', 'config_control_design', 1994, #192 ) ;
#283 = DIRECTION ( 'NONE',  ( 1.000000000000000000, 0.000000000000000000, 0.000000000000000000 ) ) ;
#284 = AXIS2_PLACEMENT_3D ( 'NONE', #70, #230, #227 ) ;
#285 = DATE_AND_TIME ( #33, #32 ) ;
#286 = CARTESIAN_POINT ( 'NONE',  ( 11.00000000000000000, 1.347111479062088405E-15, 7.000000000000000000 ) ) ;
#287 = DIRECTION ( 'NONE',  ( 1.000000000000000000, 0.000000000000000000, 0.000000000000000000 ) ) ;
#288 = CARTESIAN_POINT ( 'NONE',  ( 0.000000000000000000, 0.000000000000000000, 507.0000000000000000 ) ) ;
#289 = PRODUCT ( '747d', '747d', '', ( #74 ) ) ;
#290 = APPROVAL_STATUS ( 'not_yet_approved' ) ;
#291 = ORIENTED_EDGE ( 'NONE', *, *, #266, .F. ) ;
#292 = CLOSED_SHELL ( 'NONE', ( #231, #112, #147, #65, #257, #54, #241, #7, #6 ) ) ;
#293 = CIRCLE ( 'NONE', #117, 8.200000000000001066 ) ;
#294 = EDGE_CURVE ( 'NONE', #184, #151, #127, .T. ) ;
#295 = ORIENTED_EDGE ( 'NONE', *, *, #194, .T. ) ;
#296 = ORIENTED_EDGE ( 'NONE', *, *, #103, .T. ) ;
#297 = COORDINATED_UNIVERSAL_TIME_OFFSET ( 1, 0, .AHEAD. ) ;
#298 = CARTESIAN_POINT ( 'NONE',  ( 0.000000000000000000, 0.000000000000000000, 0.000000000000000000 ) ) ;
#299 = PERSON_AND_ORGANIZATION_ROLE ( 'design_owner' ) ;
#300 = ORIENTED_EDGE ( 'NONE', *, *, #174, .F. ) ;
#301 = APPROVAL ( #91, 'NEURÈENÝ' ) ;
#302 = DATE_AND_TIME ( #234, #4 ) ;
#303 = DIRECTION ( 'NONE',  ( 1.000000000000000000, 0.000000000000000000, -0.000000000000000000 ) ) ;
#304 = CARTESIAN_POINT ( 'NONE',  ( -8.200000000000001066, 1.004210375300829674E-15, 7.199999999999984190 ) ) ;
#305 = DIRECTION ( 'NONE',  ( -0.000000000000000000, -0.000000000000000000, -1.000000000000000000 ) ) ;
#306 = FACE_OUTER_BOUND ( 'NONE', #37, .T. ) ;
#307 = AXIS2_PLACEMENT_3D ( 'NONE', #79, #97, #198 ) ;
ENDSEC;
END-ISO-10303-21;
