ISO-10303-21;
HEADER;
FILE_DESCRIPTION (( 'STEP AP203' ),
    '1' );
FILE_NAME ('9967.STEP',
    '2022-06-20T09:36:14',
    ( '' ),
    ( '' ),
    'SwSTEP 2.0',
    'SolidWorks 2019',
    '' );
FILE_SCHEMA (( 'CONFIG_CONTROL_DESIGN' ));
ENDSEC;

DATA;
#1 = CARTESIAN_POINT ( 'NONE',  ( 5.699999999999999289, 0.000000000000000000, 5.199999999999996625 ) ) ;
#2 = ORIENTED_EDGE ( 'NONE', *, *, #34, .T. ) ;
#3 = DIRECTION ( 'NONE',  ( -1.000000000000000000, 0.000000000000000000, 0.000000000000000000 ) ) ;
#4 = EDGE_CURVE ( 'NONE', #153, #218, #163, .T. ) ;
#5 = CC_DESIGN_APPROVAL ( #268, ( #217 ) ) ;
#6 = APPROVAL_ROLE ( '' ) ;
#7 = ORIENTED_EDGE ( 'NONE', *, *, #203, .T. ) ;
#8 = CARTESIAN_POINT ( 'NONE',  ( 0.000000000000000000, 0.000000000000000000, 5.199999999999996625 ) ) ;
#9 = EDGE_CURVE ( 'NONE', #201, #288, #246, .T. ) ;
#10 = ORIENTED_EDGE ( 'NONE', *, *, #115, .F. ) ;
#11 = ORIENTED_EDGE ( 'NONE', *, *, #9, .T. ) ;
#12 = CIRCLE ( 'NONE', #52, 8.000000000000000000 ) ;
#13 = ORIENTED_EDGE ( 'NONE', *, *, #68, .T. ) ;
#14 = AXIS2_PLACEMENT_3D ( 'NONE', #18, #157, #299 ) ;
#15 = APPROVAL ( #102, 'NEURÈENÝ' ) ;
#16 = DIRECTION ( 'NONE',  ( -0.000000000000000000, -0.000000000000000000, -1.000000000000000000 ) ) ;
#17 = CYLINDRICAL_SURFACE ( 'NONE', #200, 5.500000000000000000 ) ;
#18 = CARTESIAN_POINT ( 'NONE',  ( 0.000000000000000000, 0.000000000000000000, 5.199999999999996625 ) ) ;
#19 = AXIS2_PLACEMENT_3D ( 'NONE', #8, #105, #289 ) ;
#20 = CC_DESIGN_PERSON_AND_ORGANIZATION_ASSIGNMENT ( #269, #78, ( #217 ) ) ;
#21 = DIRECTION ( 'NONE',  ( 1.000000000000000000, 0.000000000000000000, 0.000000000000000000 ) ) ;
#22 = DIRECTION ( 'NONE',  ( 0.000000000000000000, 0.000000000000000000, 1.000000000000000000 ) ) ;
#23 = DIRECTION ( 'NONE',  ( -1.000000000000000000, 0.000000000000000000, 0.000000000000000000 ) ) ;
#24 = ORIENTED_EDGE ( 'NONE', *, *, #68, .F. ) ;
#25 = ADVANCED_FACE ( 'NONE', ( #125 ), #282, .F. ) ;
#26 = CARTESIAN_POINT ( 'NONE',  ( -5.699999999999999289, 6.980486755139912122E-16, 5.199999999999996625 ) ) ;
#27 = DIRECTION ( 'NONE',  ( -1.000000000000000000, 1.224646799147353454E-16, 0.000000000000000000 ) ) ;
#28 = CIRCLE ( 'NONE', #144, 5.699999999999999289 ) ;
#29 = AXIS2_PLACEMENT_3D ( 'NONE', #139, #303, #271 ) ;
#30 = DIRECTION ( 'NONE',  ( 0.000000000000000000, 0.000000000000000000, 1.000000000000000000 ) ) ;
#31 = UNCERTAINTY_MEASURE_WITH_UNIT (LENGTH_MEASURE( 1.000000000000000082E-05 ), #75, 'distance_accuracy_value', 'NONE');
#32 = ORIENTED_EDGE ( 'NONE', *, *, #166, .T. ) ;
#33 = EDGE_LOOP ( 'NONE', ( #85, #10 ) ) ;
#34 = EDGE_CURVE ( 'NONE', #147, #218, #220, .T. ) ;
#35 = ORIENTED_EDGE ( 'NONE', *, *, #98, .F. ) ;
#36 = DATE_AND_TIME ( #244, #294 ) ;
#37 = DIRECTION ( 'NONE',  ( -0.000000000000000000, -0.000000000000000000, -1.000000000000000000 ) ) ;
#38 = ORIENTED_EDGE ( 'NONE', *, *, #9, .F. ) ;
#39 = CIRCLE ( 'NONE', #150, 5.500000000000000000 ) ;
#40 = CARTESIAN_POINT ( 'NONE',  ( -8.000000000000000000, 0.000000000000000000, 5.000000000000000000 ) ) ;
#41 = CARTESIAN_POINT ( 'NONE',  ( 0.000000000000000000, 0.000000000000000000, 5.000000000000000000 ) ) ;
#42 = CC_DESIGN_PERSON_AND_ORGANIZATION_ASSIGNMENT ( #46, #232, ( #249 ) ) ;
#43 = CARTESIAN_POINT ( 'NONE',  ( 0.000000000000000000, 0.000000000000000000, 0.000000000000000000 ) ) ;
#44 = APPROVAL_PERSON_ORGANIZATION ( #258, #237, #190 ) ;
#45 = DIRECTION ( 'NONE',  ( 1.000000000000000000, 0.000000000000000000, 0.000000000000000000 ) ) ;
#46 = PERSON_AND_ORGANIZATION ( #235, #56 ) ;
#47 = ADVANCED_FACE ( 'NONE', ( #205, #90 ), #113, .T. ) ;
#48 = COORDINATED_UNIVERSAL_TIME_OFFSET ( 1, 0, .AHEAD. ) ;
#49 = CARTESIAN_POINT ( 'NONE',  ( -5.699999999999999289, 6.980486755139912122E-16, 4.999999999999998224 ) ) ;
#50 = DIRECTION ( 'NONE',  ( 1.000000000000000000, 0.000000000000000000, 0.000000000000000000 ) ) ;
#51 = CIRCLE ( 'NONE', #169, 5.500000000000000000 ) ;
#52 = AXIS2_PLACEMENT_3D ( 'NONE', #88, #112, #21 ) ;
#53 = VERTEX_POINT ( 'NONE', #40 ) ;
#54 = DATE_TIME_ROLE ( 'creation_date' ) ;
#55 = ORIENTED_EDGE ( 'NONE', *, *, #4, .T. ) ;
#56 = ORGANIZATION ( 'NEURÈENÝ', 'NEURÈENÝ', '' ) ;
#57 = DATE_AND_TIME ( #172, #132 ) ;
#58 = EDGE_LOOP ( 'NONE', ( #130, #222, #245, #108 ) ) ;
#59 = EDGE_CURVE ( 'NONE', #73, #202, #158, .T. ) ;
#60 = CARTESIAN_POINT ( 'NONE',  ( 0.000000000000000000, 0.000000000000000000, 5.000000000000000000 ) ) ;
#61 = CARTESIAN_POINT ( 'NONE',  ( 0.000000000000000000, 0.000000000000000000, 5.199999999999996625 ) ) ;
#62 = DIRECTION ( 'NONE',  ( -1.000000000000000000, 0.000000000000000000, 0.000000000000000000 ) ) ;
#63 = ADVANCED_FACE ( 'NONE', ( #155 ), #181, .F. ) ;
#64 = FACE_OUTER_BOUND ( 'NONE', #264, .T. ) ;
#65 = CIRCLE ( 'NONE', #121, 8.000000000000000000 ) ;
#66 = DIRECTION ( 'NONE',  ( 0.000000000000000000, 0.000000000000000000, 1.000000000000000000 ) ) ;
#67 = VECTOR ( 'NONE', #185, 1000.000000000000000 ) ;
#68 = EDGE_CURVE ( 'NONE', #53, #153, #86, .T. ) ;
#69 = MECHANICAL_CONTEXT ( 'NONE', #141, 'mechanical' ) ;
#70 = APPLICATION_PROTOCOL_DEFINITION ( 'international standard', 'config_control_design', 1994, #215 ) ;
#71 = AXIS2_PLACEMENT_3D ( 'NONE', #79, #173, #82 ) ;
#72 = APPROVAL_DATE_TIME ( #283, #237 ) ;
#73 = VERTEX_POINT ( 'NONE', #227 ) ;
#74 = EDGE_CURVE ( 'NONE', #266, #123, #187, .T. ) ;
#75 =( LENGTH_UNIT ( ) NAMED_UNIT ( * ) SI_UNIT ( .MILLI., .METRE. ) );
#76 = ORIENTED_EDGE ( 'NONE', *, *, #293, .T. ) ;
#77 = EDGE_CURVE ( 'NONE', #288, #201, #28, .T. ) ;
#78 = PERSON_AND_ORGANIZATION_ROLE ( 'classification_officer' ) ;
#79 = CARTESIAN_POINT ( 'NONE',  ( 0.000000000000000000, 0.000000000000000000, 0.000000000000000000 ) ) ;
#80 = DATE_AND_TIME ( #243, #262 ) ;
#81 = CARTESIAN_POINT ( 'NONE',  ( 8.000000000000000000, 9.797174393178825657E-16, 5.000000000000000000 ) ) ;
#82 = DIRECTION ( 'NONE',  ( 1.000000000000000000, 0.000000000000000000, 0.000000000000000000 ) ) ;
#83 = LOCAL_TIME ( 11, 36, 14.00000000000000000, #295 ) ;
#84 = AXIS2_PLACEMENT_3D ( 'NONE', #253, #138, #45 ) ;
#85 = ORIENTED_EDGE ( 'NONE', *, *, #4, .F. ) ;
#86 = LINE ( 'NONE', #302, #67 ) ;
#87 = CARTESIAN_POINT ( 'NONE',  ( 0.000000000000000000, 0.000000000000000000, 130.0000000000000000 ) ) ;
#88 = CARTESIAN_POINT ( 'NONE',  ( 0.000000000000000000, 0.000000000000000000, 0.000000000000000000 ) ) ;
#89 = ADVANCED_BREP_SHAPE_REPRESENTATION ( '9967', ( #223, #278 ), #159 ) ;
#90 = FACE_OUTER_BOUND ( 'NONE', #168, .T. ) ;
#91 = DIRECTION ( 'NONE',  ( -1.000000000000000000, 0.000000000000000000, 0.000000000000000000 ) ) ;
#92 = AXIS2_PLACEMENT_3D ( 'NONE', #284, #236, #23 ) ;
#93 =( NAMED_UNIT ( * ) SI_UNIT ( $, .STERADIAN. ) SOLID_ANGLE_UNIT ( ) );
#94 = PRODUCT_DEFINITION ( 'NEZNÁMÝ', '', #306, #101 ) ;
#95 = DIRECTION ( 'NONE',  ( 0.000000000000000000, 0.000000000000000000, 1.000000000000000000 ) ) ;
#96 = ORIENTED_EDGE ( 'NONE', *, *, #98, .T. ) ;
#97 = CARTESIAN_POINT ( 'NONE',  ( 0.000000000000000000, 0.000000000000000000, 130.0000000000000000 ) ) ;
#98 = EDGE_CURVE ( 'NONE', #53, #147, #186, .T. ) ;
#99 = LOCAL_TIME ( 11, 36, 14.00000000000000000, #48 ) ;
#100 = DIRECTION ( 'NONE',  ( 0.000000000000000000, -1.000000000000000000, 0.000000000000000000 ) ) ;
#101 = DESIGN_CONTEXT ( 'detailed design', #215, 'design' ) ;
#102 = APPROVAL_STATUS ( 'not_yet_approved' ) ;
#103 = ORIENTED_EDGE ( 'NONE', *, *, #145, .F. ) ;
#104 = PERSON_AND_ORGANIZATION ( #235, #56 ) ;
#105 = DIRECTION ( 'NONE',  ( 0.000000000000000000, 0.000000000000000000, 1.000000000000000000 ) ) ;
#106 = EDGE_LOOP ( 'NONE', ( #11, #131 ) ) ;
#107 = ORIENTED_EDGE ( 'NONE', *, *, #77, .F. ) ;
#108 = ORIENTED_EDGE ( 'NONE', *, *, #203, .F. ) ;
#109 = DIRECTION ( 'NONE',  ( 0.000000000000000000, 0.000000000000000000, 1.000000000000000000 ) ) ;
#110 = DIRECTION ( 'NONE',  ( -0.000000000000000000, -0.000000000000000000, -1.000000000000000000 ) ) ;
#111 = AXIS2_PLACEMENT_3D ( 'NONE', #248, #37, #171 ) ;
#112 = DIRECTION ( 'NONE',  ( 0.000000000000000000, 0.000000000000000000, 1.000000000000000000 ) ) ;
#113 = PLANE ( 'NONE',  #296 ) ;
#114 = DIRECTION ( 'NONE',  ( -0.000000000000000000, -0.000000000000000000, -1.000000000000000000 ) ) ;
#115 = EDGE_CURVE ( 'NONE', #218, #153, #12, .T. ) ;
#116 = PLANE ( 'NONE',  #167 ) ;
#117 = CYLINDRICAL_SURFACE ( 'NONE', #92, 8.000000000000000000 ) ;
#118 = APPROVAL_STATUS ( 'not_yet_approved' ) ;
#119 = APPROVAL_PERSON_ORGANIZATION ( #199, #268, #247 ) ;
#120 = DIRECTION ( 'NONE',  ( 1.224646799147353207E-16, 1.000000000000000000, -0.000000000000000000 ) ) ;
#121 = AXIS2_PLACEMENT_3D ( 'NONE', #234, #216, #50 ) ;
#122 = CC_DESIGN_DATE_AND_TIME_ASSIGNMENT ( #80, #54, ( #94 ) ) ;
#123 = VERTEX_POINT ( 'NONE', #301 ) ;
#124 = CALENDAR_DATE ( 2022, 20, 6 ) ;
#125 = FACE_OUTER_BOUND ( 'NONE', #178, .T. ) ;
#126 = CLOSED_SHELL ( 'NONE', ( #149, #134, #194, #206, #47, #63, #281, #300, #25 ) ) ;
#127 = ORIENTED_EDGE ( 'NONE', *, *, #184, .F. ) ;
#128 = CC_DESIGN_PERSON_AND_ORGANIZATION_ASSIGNMENT ( #104, #177, ( #306 ) ) ;
#129 = APPROVAL_STATUS ( 'not_yet_approved' ) ;
#130 = ORIENTED_EDGE ( 'NONE', *, *, #74, .F. ) ;
#131 = ORIENTED_EDGE ( 'NONE', *, *, #77, .T. ) ;
#132 = LOCAL_TIME ( 11, 36, 14.00000000000000000, #151 ) ;
#133 = DIRECTION ( 'NONE',  ( 1.000000000000000000, 0.000000000000000000, -0.000000000000000000 ) ) ;
#134 = ADVANCED_FACE ( 'NONE', ( #304 ), #17, .T. ) ;
#135 = CARTESIAN_POINT ( 'NONE',  ( 5.500000000000000000, 6.735557395310442023E-16, 130.0000000000000000 ) ) ;
#136 = CARTESIAN_POINT ( 'NONE',  ( -5.500000000000000000, 0.000000000000000000, 130.0000000000000000 ) ) ;
#137 = CC_DESIGN_APPROVAL ( #15, ( #306 ) ) ;
#138 = DIRECTION ( 'NONE',  ( 0.000000000000000000, 0.000000000000000000, 1.000000000000000000 ) ) ;
#139 = CARTESIAN_POINT ( 'NONE',  ( 0.000000000000000000, 0.000000000000000000, 130.0000000000000000 ) ) ;
#140 =( NAMED_UNIT ( * ) PLANE_ANGLE_UNIT ( ) SI_UNIT ( $, .RADIAN. ) );
#141 = APPLICATION_CONTEXT ( 'configuration controlled 3d designs of mechanical parts and assemblies' ) ;
#142 = CALENDAR_DATE ( 2022, 20, 6 ) ;
#143 = DIRECTION ( 'NONE',  ( 1.000000000000000000, 0.000000000000000000, 0.000000000000000000 ) ) ;
#144 = AXIS2_PLACEMENT_3D ( 'NONE', #60, #230, #160 ) ;
#145 = EDGE_CURVE ( 'NONE', #123, #266, #51, .T. ) ;
#146 = ORIENTED_EDGE ( 'NONE', *, *, #115, .T. ) ;
#147 = VERTEX_POINT ( 'NONE', #231 ) ;
#148 = PERSON_AND_ORGANIZATION ( #235, #56 ) ;
#149 = ADVANCED_FACE ( 'NONE', ( #64 ), #267, .F. ) ;
#150 = AXIS2_PLACEMENT_3D ( 'NONE', #61, #22, #252 ) ;
#151 = COORDINATED_UNIVERSAL_TIME_OFFSET ( 1, 0, .AHEAD. ) ;
#152 = ORIENTED_EDGE ( 'NONE', *, *, #257, .T. ) ;
#153 = VERTEX_POINT ( 'NONE', #256 ) ;
#154 = CARTESIAN_POINT ( 'NONE',  ( 5.699999999999999289, 0.000000000000000000, 4.999999999999998224 ) ) ;
#155 = FACE_OUTER_BOUND ( 'NONE', #33, .T. ) ;
#156 = CARTESIAN_POINT ( 'NONE',  ( -5.500000000000000000, 0.000000000000000000, 5.199999999999996625 ) ) ;
#157 = DIRECTION ( 'NONE',  ( 0.000000000000000000, 0.000000000000000000, 1.000000000000000000 ) ) ;
#158 = CIRCLE ( 'NONE', #14, 5.500000000000000000 ) ;
#159 =( GEOMETRIC_REPRESENTATION_CONTEXT ( 3 ) GLOBAL_UNCERTAINTY_ASSIGNED_CONTEXT ( ( #31 ) ) GLOBAL_UNIT_ASSIGNED_CONTEXT ( ( #75, #140, #93 ) ) REPRESENTATION_CONTEXT ( 'NONE', 'WORKASPACE' ) );
#160 = DIRECTION ( 'NONE',  ( 1.000000000000000000, 0.000000000000000000, 0.000000000000000000 ) ) ;
#161 = CYLINDRICAL_SURFACE ( 'NONE', #225, 5.500000000000000000 ) ;
#162 = FACE_OUTER_BOUND ( 'NONE', #270, .T. ) ;
#163 = CIRCLE ( 'NONE', #71, 8.000000000000000000 ) ;
#164 = PERSON_AND_ORGANIZATION ( #235, #56 ) ;
#165 = DIRECTION ( 'NONE',  ( 0.000000000000000000, 0.000000000000000000, -1.000000000000000000 ) ) ;
#166 = EDGE_CURVE ( 'NONE', #202, #73, #39, .T. ) ;
#167 = AXIS2_PLACEMENT_3D ( 'NONE', #305, #95, #191 ) ;
#168 = EDGE_LOOP ( 'NONE', ( #96, #152 ) ) ;
#169 = AXIS2_PLACEMENT_3D ( 'NONE', #272, #109, #274 ) ;
#170 = DATE_TIME_ROLE ( 'classification_date' ) ;
#171 = DIRECTION ( 'NONE',  ( 1.000000000000000000, 0.000000000000000000, 0.000000000000000000 ) ) ;
#172 = CALENDAR_DATE ( 2022, 20, 6 ) ;
#173 = DIRECTION ( 'NONE',  ( 0.000000000000000000, 0.000000000000000000, 1.000000000000000000 ) ) ;
#174 = APPROVAL_DATE_TIME ( #57, #15 ) ;
#175 = ORIENTED_EDGE ( 'NONE', *, *, #145, .T. ) ;
#176 = VECTOR ( 'NONE', #16, 1000.000000000000000 ) ;
#177 = PERSON_AND_ORGANIZATION_ROLE ( 'creator' ) ;
#178 = EDGE_LOOP ( 'NONE', ( #221, #241, #76, #107 ) ) ;
#179 = CC_DESIGN_PERSON_AND_ORGANIZATION_ASSIGNMENT ( #164, #261, ( #94 ) ) ;
#180 = CYLINDRICAL_SURFACE ( 'NONE', #239, 8.000000000000000000 ) ;
#181 = PLANE ( 'NONE',  #307 ) ;
#182 = FACE_OUTER_BOUND ( 'NONE', #250, .T. ) ;
#183 = DIRECTION ( 'NONE',  ( 1.000000000000000000, 0.000000000000000000, -0.000000000000000000 ) ) ;
#184 = EDGE_CURVE ( 'NONE', #266, #73, #207, .T. ) ;
#185 = DIRECTION ( 'NONE',  ( -0.000000000000000000, -0.000000000000000000, -1.000000000000000000 ) ) ;
#186 = CIRCLE ( 'NONE', #84, 8.000000000000000000 ) ;
#187 = CIRCLE ( 'NONE', #29, 5.500000000000000000 ) ;
#188 = ORIENTED_EDGE ( 'NONE', *, *, #74, .T. ) ;
#189 = FACE_OUTER_BOUND ( 'NONE', #198, .T. ) ;
#190 = APPROVAL_ROLE ( '' ) ;
#191 = DIRECTION ( 'NONE',  ( 1.000000000000000000, 0.000000000000000000, -0.000000000000000000 ) ) ;
#192 = SECURITY_CLASSIFICATION_LEVEL ( 'unclassified' ) ;
#193 = ORIENTED_EDGE ( 'NONE', *, *, #257, .F. ) ;
#194 = ADVANCED_FACE ( 'NONE', ( #182 ), #180, .T. ) ;
#195 = ORIENTED_EDGE ( 'NONE', *, *, #293, .F. ) ;
#196 = CC_DESIGN_SECURITY_CLASSIFICATION ( #217, ( #306 ) ) ;
#197 = PERSON_AND_ORGANIZATION ( #235, #56 ) ;
#198 = EDGE_LOOP ( 'NONE', ( #127, #103, #7, #32 ) ) ;
#199 = PERSON_AND_ORGANIZATION ( #235, #56 ) ;
#200 = AXIS2_PLACEMENT_3D ( 'NONE', #87, #114, #91 ) ;
#201 = VERTEX_POINT ( 'NONE', #154 ) ;
#202 = VERTEX_POINT ( 'NONE', #156 ) ;
#203 = EDGE_CURVE ( 'NONE', #123, #202, #251, .T. ) ;
#204 = CARTESIAN_POINT ( 'NONE',  ( 0.000000000000000000, 0.000000000000000000, 5.000000000000000000 ) ) ;
#205 = FACE_BOUND ( 'NONE', #106, .T. ) ;
#206 = ADVANCED_FACE ( 'NONE', ( #162 ), #117, .T. ) ;
#207 = LINE ( 'NONE', #135, #276 ) ;
#208 = DIRECTION ( 'NONE',  ( 0.000000000000000000, 0.000000000000000000, 1.000000000000000000 ) ) ;
#209 = CIRCLE ( 'NONE', #214, 0.1999999999999996503 ) ;
#210 = CARTESIAN_POINT ( 'NONE',  ( 8.000000000000000000, 9.797174393178825657E-16, 0.000000000000000000 ) ) ;
#211 = ORIENTED_EDGE ( 'NONE', *, *, #34, .F. ) ;
#212 = DIRECTION ( 'NONE',  ( -0.000000000000000000, -0.000000000000000000, -1.000000000000000000 ) ) ;
#213 = CARTESIAN_POINT ( 'NONE',  ( 5.500000000000000000, 6.735557395310442023E-16, 130.0000000000000000 ) ) ;
#214 = AXIS2_PLACEMENT_3D ( 'NONE', #26, #120, #27 ) ;
#215 = APPLICATION_CONTEXT ( 'configuration controlled 3d designs of mechanical parts and assemblies' ) ;
#216 = DIRECTION ( 'NONE',  ( 0.000000000000000000, 0.000000000000000000, 1.000000000000000000 ) ) ;
#217 = SECURITY_CLASSIFICATION ( '', '', #192 ) ;
#218 = VERTEX_POINT ( 'NONE', #210 ) ;
#219 = COORDINATED_UNIVERSAL_TIME_OFFSET ( 1, 0, .AHEAD. ) ;
#220 = LINE ( 'NONE', #81, #176 ) ;
#221 = ORIENTED_EDGE ( 'NONE', *, *, #260, .F. ) ;
#222 = ORIENTED_EDGE ( 'NONE', *, *, #184, .T. ) ;
#223 = MANIFOLD_SOLID_BREP ( 'Zaoblit1', #126 ) ;
#224 = AXIS2_PLACEMENT_3D ( 'NONE', #275, #66, #226 ) ;
#225 = AXIS2_PLACEMENT_3D ( 'NONE', #97, #212, #3 ) ;
#226 = DIRECTION ( 'NONE',  ( 1.000000000000000000, 0.000000000000000000, 0.000000000000000000 ) ) ;
#227 = CARTESIAN_POINT ( 'NONE',  ( 5.500000000000000000, 6.735557395310442023E-16, 5.199999999999996625 ) ) ;
#228 = CC_DESIGN_DATE_AND_TIME_ASSIGNMENT ( #265, #170, ( #217 ) ) ;
#229 = DIRECTION ( 'NONE',  ( -0.000000000000000000, -0.000000000000000000, -1.000000000000000000 ) ) ;
#230 = DIRECTION ( 'NONE',  ( -0.000000000000000000, -0.000000000000000000, -1.000000000000000000 ) ) ;
#231 = CARTESIAN_POINT ( 'NONE',  ( 8.000000000000000000, 9.797174393178825657E-16, 5.000000000000000000 ) ) ;
#232 = PERSON_AND_ORGANIZATION_ROLE ( 'design_owner' ) ;
#233 = ORIENTED_EDGE ( 'NONE', *, *, #166, .F. ) ;
#234 = CARTESIAN_POINT ( 'NONE',  ( 0.000000000000000000, 0.000000000000000000, 5.000000000000000000 ) ) ;
#235 = PERSON ( 'NEURÈENÝ', 'NEURÈENÝ', 'NEURÈENÝ', ('NEURÈENÝ'), ('NEURÈENÝ'), ('NEURÈENÝ') ) ;
#236 = DIRECTION ( 'NONE',  ( -0.000000000000000000, -0.000000000000000000, -1.000000000000000000 ) ) ;
#237 = APPROVAL ( #118, 'NEURÈENÝ' ) ;
#238 = COORDINATED_UNIVERSAL_TIME_OFFSET ( 1, 0, .AHEAD. ) ;
#239 = AXIS2_PLACEMENT_3D ( 'NONE', #41, #273, #62 ) ;
#240 = CIRCLE ( 'NONE', #298, 0.1999999999999996503 ) ;
#241 = ORIENTED_EDGE ( 'NONE', *, *, #59, .F. ) ;
#242 = CC_DESIGN_PERSON_AND_ORGANIZATION_ASSIGNMENT ( #197, #287, ( #306 ) ) ;
#243 = CALENDAR_DATE ( 2022, 20, 6 ) ;
#244 = CALENDAR_DATE ( 2022, 20, 6 ) ;
#245 = ORIENTED_EDGE ( 'NONE', *, *, #59, .T. ) ;
#246 = CIRCLE ( 'NONE', #111, 5.699999999999999289 ) ;
#247 = APPROVAL_ROLE ( '' ) ;
#248 = CARTESIAN_POINT ( 'NONE',  ( 0.000000000000000000, 0.000000000000000000, 5.000000000000000000 ) ) ;
#249 = PRODUCT ( '9967', '9967', '', ( #69 ) ) ;
#250 = EDGE_LOOP ( 'NONE', ( #193, #2, #146, #24 ) ) ;
#251 = LINE ( 'NONE', #136, #286 ) ;
#252 = DIRECTION ( 'NONE',  ( 1.000000000000000000, 0.000000000000000000, 0.000000000000000000 ) ) ;
#253 = CARTESIAN_POINT ( 'NONE',  ( 0.000000000000000000, 0.000000000000000000, 5.000000000000000000 ) ) ;
#254 = DIRECTION ( 'NONE',  ( 0.000000000000000000, 0.000000000000000000, 1.000000000000000000 ) ) ;
#255 = APPROVAL_PERSON_ORGANIZATION ( #148, #15, #6 ) ;
#256 = CARTESIAN_POINT ( 'NONE',  ( -8.000000000000000000, 0.000000000000000000, 0.000000000000000000 ) ) ;
#257 = EDGE_CURVE ( 'NONE', #147, #53, #65, .T. ) ;
#258 = PERSON_AND_ORGANIZATION ( #235, #56 ) ;
#259 = CARTESIAN_POINT ( 'NONE',  ( 0.000000000000000000, 0.000000000000000000, 0.000000000000000000 ) ) ;
#260 = EDGE_CURVE ( 'NONE', #202, #288, #209, .T. ) ;
#261 = PERSON_AND_ORGANIZATION_ROLE ( 'creator' ) ;
#262 = LOCAL_TIME ( 11, 36, 14.00000000000000000, #238 ) ;
#263 = CC_DESIGN_APPROVAL ( #237, ( #94 ) ) ;
#264 = EDGE_LOOP ( 'NONE', ( #233, #297, #38, #195 ) ) ;
#265 = DATE_AND_TIME ( #124, #83 ) ;
#266 = VERTEX_POINT ( 'NONE', #213 ) ;
#267 = TOROIDAL_SURFACE ( 'NONE', #224, 5.699999999999999289, 0.2000000000000000111 ) ;
#268 = APPROVAL ( #129, 'NEURÈENÝ' ) ;
#269 = PERSON_AND_ORGANIZATION ( #235, #56 ) ;
#270 = EDGE_LOOP ( 'NONE', ( #211, #35, #13, #55 ) ) ;
#271 = DIRECTION ( 'NONE',  ( 1.000000000000000000, 0.000000000000000000, 0.000000000000000000 ) ) ;
#272 = CARTESIAN_POINT ( 'NONE',  ( 0.000000000000000000, 0.000000000000000000, 130.0000000000000000 ) ) ;
#273 = DIRECTION ( 'NONE',  ( -0.000000000000000000, -0.000000000000000000, -1.000000000000000000 ) ) ;
#274 = DIRECTION ( 'NONE',  ( 1.000000000000000000, 0.000000000000000000, 0.000000000000000000 ) ) ;
#275 = CARTESIAN_POINT ( 'NONE',  ( 0.000000000000000000, 0.000000000000000000, 5.199999999999996625 ) ) ;
#276 = VECTOR ( 'NONE', #110, 1000.000000000000000 ) ;
#277 = PRODUCT_RELATED_PRODUCT_CATEGORY ( 'detail', '', ( #249 ) ) ;
#278 = AXIS2_PLACEMENT_3D ( 'NONE', #259, #30, #143 ) ;
#279 = APPLICATION_PROTOCOL_DEFINITION ( 'international standard', 'config_control_design', 1994, #141 ) ;
#280 = FACE_OUTER_BOUND ( 'NONE', #292, .T. ) ;
#281 = ADVANCED_FACE ( 'NONE', ( #189 ), #161, .T. ) ;
#282 = TOROIDAL_SURFACE ( 'NONE', #19, 5.699999999999999289, 0.2000000000000000111 ) ;
#283 = DATE_AND_TIME ( #142, #99 ) ;
#284 = CARTESIAN_POINT ( 'NONE',  ( 0.000000000000000000, 0.000000000000000000, 5.000000000000000000 ) ) ;
#285 = SHAPE_DEFINITION_REPRESENTATION ( #290, #89 ) ;
#286 = VECTOR ( 'NONE', #229, 1000.000000000000000 ) ;
#287 = PERSON_AND_ORGANIZATION_ROLE ( 'design_supplier' ) ;
#288 = VERTEX_POINT ( 'NONE', #49 ) ;
#289 = DIRECTION ( 'NONE',  ( 1.000000000000000000, 0.000000000000000000, 0.000000000000000000 ) ) ;
#290 = PRODUCT_DEFINITION_SHAPE ( 'NONE', 'NONE',  #94 ) ;
#291 = APPROVAL_DATE_TIME ( #36, #268 ) ;
#292 = EDGE_LOOP ( 'NONE', ( #175, #188 ) ) ;
#293 = EDGE_CURVE ( 'NONE', #73, #201, #240, .T. ) ;
#294 = LOCAL_TIME ( 11, 36, 14.00000000000000000, #219 ) ;
#295 = COORDINATED_UNIVERSAL_TIME_OFFSET ( 1, 0, .AHEAD. ) ;
#296 = AXIS2_PLACEMENT_3D ( 'NONE', #204, #208, #183 ) ;
#297 = ORIENTED_EDGE ( 'NONE', *, *, #260, .T. ) ;
#298 = AXIS2_PLACEMENT_3D ( 'NONE', #1, #100, #165 ) ;
#299 = DIRECTION ( 'NONE',  ( 1.000000000000000000, 0.000000000000000000, 0.000000000000000000 ) ) ;
#300 = ADVANCED_FACE ( 'NONE', ( #280 ), #116, .T. ) ;
#301 = CARTESIAN_POINT ( 'NONE',  ( -5.500000000000000000, 0.000000000000000000, 130.0000000000000000 ) ) ;
#302 = CARTESIAN_POINT ( 'NONE',  ( -8.000000000000000000, 0.000000000000000000, 5.000000000000000000 ) ) ;
#303 = DIRECTION ( 'NONE',  ( 0.000000000000000000, 0.000000000000000000, 1.000000000000000000 ) ) ;
#304 = FACE_OUTER_BOUND ( 'NONE', #58, .T. ) ;
#305 = CARTESIAN_POINT ( 'NONE',  ( 0.000000000000000000, 0.000000000000000000, 130.0000000000000000 ) ) ;
#306 = PRODUCT_DEFINITION_FORMATION_WITH_SPECIFIED_SOURCE ( 'LIBOVOLNÝ', '', #249, .NOT_KNOWN. ) ;
#307 = AXIS2_PLACEMENT_3D ( 'NONE', #43, #254, #133 ) ;
ENDSEC;
END-ISO-10303-21;
