ISO-10303-21;
HEADER;
FILE_DESCRIPTION (( 'STEP AP203' ),
    '1' );
FILE_NAME ('2bec.STEP',
    '2022-06-20T09:29:23',
    ( '' ),
    ( '' ),
    'SwSTEP 2.0',
    'SolidWorks 2019',
    '' );
FILE_SCHEMA (( 'CONFIG_CONTROL_DESIGN' ));
ENDSEC;

DATA;
#1 = CARTESIAN_POINT ( 'NONE',  ( 0.000000000000000000, 0.000000000000000000, 1006.999999999999886 ) ) ;
#2 = PRODUCT_DEFINITION_SHAPE ( 'NONE', 'NONE',  #17 ) ;
#3 = EDGE_CURVE ( 'NONE', #276, #228, #238, .T. ) ;
#4 = DIRECTION ( 'NONE',  ( 1.000000000000000000, 0.000000000000000000, 0.000000000000000000 ) ) ;
#5 = CARTESIAN_POINT ( 'NONE',  ( 9.000000000000000000, 1.102182119232617714E-15, 7.000000000000000000 ) ) ;
#6 = LOCAL_TIME ( 11, 29, 23.00000000000000000, #127 ) ;
#7 = DIRECTION ( 'NONE',  ( 1.000000000000000000, 0.000000000000000000, 0.000000000000000000 ) ) ;
#8 = COORDINATED_UNIVERSAL_TIME_OFFSET ( 1, 0, .AHEAD. ) ;
#9 = EDGE_LOOP ( 'NONE', ( #230, #281 ) ) ;
#10 = EDGE_CURVE ( 'NONE', #207, #295, #186, .T. ) ;
#11 = DIRECTION ( 'NONE',  ( 0.000000000000000000, 0.000000000000000000, 1.000000000000000000 ) ) ;
#12 = ORIENTED_EDGE ( 'NONE', *, *, #151, .T. ) ;
#13 = APPLICATION_PROTOCOL_DEFINITION ( 'international standard', 'config_control_design', 1994, #126 ) ;
#14 = VECTOR ( 'NONE', #19, 1000.000000000000000 ) ;
#15 = PERSON_AND_ORGANIZATION_ROLE ( 'design_owner' ) ;
#16 = CARTESIAN_POINT ( 'NONE',  ( -6.299999999999998934, 7.715274834628324392E-16, 7.199999999999984190 ) ) ;
#17 = PRODUCT_DEFINITION ( 'NEZNÁMÝ', '', #267, #18 ) ;
#18 = DESIGN_CONTEXT ( 'detailed design', #126, 'design' ) ;
#19 = DIRECTION ( 'NONE',  ( -0.000000000000000000, -0.000000000000000000, -1.000000000000000000 ) ) ;
#20 = ORIENTED_EDGE ( 'NONE', *, *, #251, .T. ) ;
#21 = VERTEX_POINT ( 'NONE', #226 ) ;
#22 = MANIFOLD_SOLID_BREP ( 'Zaoblit1', #160 ) ;
#23 = EDGE_LOOP ( 'NONE', ( #305, #39, #283, #148 ) ) ;
#24 = CC_DESIGN_PERSON_AND_ORGANIZATION_ASSIGNMENT ( #34, #15, ( #261 ) ) ;
#25 = DIRECTION ( 'NONE',  ( -0.000000000000000000, -0.000000000000000000, -1.000000000000000000 ) ) ;
#26 = DIRECTION ( 'NONE',  ( -0.000000000000000000, -0.000000000000000000, -1.000000000000000000 ) ) ;
#27 = EDGE_CURVE ( 'NONE', #135, #21, #89, .T. ) ;
#28 = LINE ( 'NONE', #144, #152 ) ;
#29 = DIRECTION ( 'NONE',  ( 1.000000000000000000, 0.000000000000000000, 0.000000000000000000 ) ) ;
#30 = AXIS2_PLACEMENT_3D ( 'NONE', #206, #84, #45 ) ;
#31 = CARTESIAN_POINT ( 'NONE',  ( 9.000000000000000000, 1.102182119232617714E-15, 7.000000000000000000 ) ) ;
#32 = AXIS2_PLACEMENT_3D ( 'NONE', #299, #11, #294 ) ;
#33 = APPROVAL_DATE_TIME ( #270, #140 ) ;
#34 = PERSON_AND_ORGANIZATION ( #219, #291 ) ;
#35 = PERSON_AND_ORGANIZATION_ROLE ( 'creator' ) ;
#36 = ORIENTED_EDGE ( 'NONE', *, *, #10, .T. ) ;
#37 = SECURITY_CLASSIFICATION ( '', '', #223 ) ;
#38 = PERSON_AND_ORGANIZATION_ROLE ( 'creator' ) ;
#39 = ORIENTED_EDGE ( 'NONE', *, *, #55, .T. ) ;
#40 = DATE_TIME_ROLE ( 'classification_date' ) ;
#41 = PLANE ( 'NONE',  #85 ) ;
#42 = CIRCLE ( 'NONE', #288, 0.1999999999999996503 ) ;
#43 = ORIENTED_EDGE ( 'NONE', *, *, #251, .F. ) ;
#44 = ADVANCED_BREP_SHAPE_REPRESENTATION ( '2bec', ( #22, #32 ), #231 ) ;
#45 = DIRECTION ( 'NONE',  ( 1.000000000000000000, 0.000000000000000000, 0.000000000000000000 ) ) ;
#46 = ORIENTED_EDGE ( 'NONE', *, *, #100, .T. ) ;
#47 = APPROVAL ( #224, 'NEURÈENÝ' ) ;
#48 = DIRECTION ( 'NONE',  ( 1.000000000000000000, 0.000000000000000000, -0.000000000000000000 ) ) ;
#49 = DIRECTION ( 'NONE',  ( -1.000000000000000000, 0.000000000000000000, 0.000000000000000000 ) ) ;
#50 = CARTESIAN_POINT ( 'NONE',  ( 6.299999999999998934, 0.000000000000000000, 6.999999999999992006 ) ) ;
#51 = CIRCLE ( 'NONE', #217, 9.000000000000000000 ) ;
#52 = CARTESIAN_POINT ( 'NONE',  ( 0.000000000000000000, 0.000000000000000000, 1006.999999999999886 ) ) ;
#53 = CYLINDRICAL_SURFACE ( 'NONE', #232, 6.099999999999999645 ) ;
#54 = AXIS2_PLACEMENT_3D ( 'NONE', #138, #159, #256 ) ;
#55 = EDGE_CURVE ( 'NONE', #21, #295, #99, .T. ) ;
#56 =( NAMED_UNIT ( * ) SI_UNIT ( $, .STERADIAN. ) SOLID_ANGLE_UNIT ( ) );
#57 = APPROVAL_PERSON_ORGANIZATION ( #82, #140, #145 ) ;
#58 = AXIS2_PLACEMENT_3D ( 'NONE', #196, #94, #29 ) ;
#59 = ORIENTED_EDGE ( 'NONE', *, *, #109, .F. ) ;
#60 = CARTESIAN_POINT ( 'NONE',  ( 9.000000000000000000, 1.102182119232617714E-15, 0.000000000000000000 ) ) ;
#61 = EDGE_CURVE ( 'NONE', #108, #248, #198, .T. ) ;
#62 = APPROVAL_DATE_TIME ( #298, #197 ) ;
#63 = DIRECTION ( 'NONE',  ( 0.000000000000000000, 0.000000000000000000, 1.000000000000000000 ) ) ;
#64 = ORIENTED_EDGE ( 'NONE', *, *, #3, .T. ) ;
#65 = DATE_AND_TIME ( #245, #6 ) ;
#66 = ADVANCED_FACE ( 'NONE', ( #279 ), #69, .T. ) ;
#67 = CARTESIAN_POINT ( 'NONE',  ( -9.000000000000000000, 0.000000000000000000, 7.000000000000000000 ) ) ;
#68 = DIRECTION ( 'NONE',  ( -0.000000000000000000, -0.000000000000000000, -1.000000000000000000 ) ) ;
#69 = CYLINDRICAL_SURFACE ( 'NONE', #54, 9.000000000000000000 ) ;
#70 = ORIENTED_EDGE ( 'NONE', *, *, #156, .T. ) ;
#71 = EDGE_LOOP ( 'NONE', ( #90, #87, #188, #254 ) ) ;
#72 = VECTOR ( 'NONE', #212, 1000.000000000000000 ) ;
#73 = CYLINDRICAL_SURFACE ( 'NONE', #296, 9.000000000000000000 ) ;
#74 = DIRECTION ( 'NONE',  ( 0.000000000000000000, 0.000000000000000000, 1.000000000000000000 ) ) ;
#75 = DIRECTION ( 'NONE',  ( 1.000000000000000000, 0.000000000000000000, 0.000000000000000000 ) ) ;
#76 = LOCAL_TIME ( 11, 29, 23.00000000000000000, #8 ) ;
#77 = DIRECTION ( 'NONE',  ( -0.000000000000000000, -0.000000000000000000, -1.000000000000000000 ) ) ;
#78 = CARTESIAN_POINT ( 'NONE',  ( -6.299999999999998934, 7.715274834628324392E-16, 6.999999999999992006 ) ) ;
#79 = APPROVAL_STATUS ( 'not_yet_approved' ) ;
#80 = EDGE_CURVE ( 'NONE', #228, #276, #51, .T. ) ;
#81 = CARTESIAN_POINT ( 'NONE',  ( 0.000000000000000000, 0.000000000000000000, 7.000000000000000000 ) ) ;
#82 = PERSON_AND_ORGANIZATION ( #219, #291 ) ;
#83 = PRODUCT_RELATED_PRODUCT_CATEGORY ( 'detail', '', ( #261 ) ) ;
#84 = DIRECTION ( 'NONE',  ( 0.000000000000000000, 0.000000000000000000, 1.000000000000000000 ) ) ;
#85 = AXIS2_PLACEMENT_3D ( 'NONE', #161, #258, #48 ) ;
#86 = EDGE_LOOP ( 'NONE', ( #183, #129, #46, #111 ) ) ;
#87 = ORIENTED_EDGE ( 'NONE', *, *, #181, .T. ) ;
#88 = DIRECTION ( 'NONE',  ( 0.000000000000000000, 0.000000000000000000, 1.000000000000000000 ) ) ;
#89 = CIRCLE ( 'NONE', #170, 6.099999999999999645 ) ;
#90 = ORIENTED_EDGE ( 'NONE', *, *, #3, .F. ) ;
#91 = LINE ( 'NONE', #31, #105 ) ;
#92 = FACE_OUTER_BOUND ( 'NONE', #23, .T. ) ;
#93 = DIRECTION ( 'NONE',  ( 0.000000000000000000, -1.000000000000000000, 0.000000000000000000 ) ) ;
#94 = DIRECTION ( 'NONE',  ( -0.000000000000000000, -0.000000000000000000, -1.000000000000000000 ) ) ;
#95 = ADVANCED_FACE ( 'NONE', ( #185 ), #41, .T. ) ;
#96 = AXIS2_PLACEMENT_3D ( 'NONE', #260, #74, #247 ) ;
#97 = DIRECTION ( 'NONE',  ( 1.000000000000000000, 0.000000000000000000, 0.000000000000000000 ) ) ;
#98 = CALENDAR_DATE ( 2022, 20, 6 ) ;
#99 = CIRCLE ( 'NONE', #103, 0.1999999999999996503 ) ;
#100 = EDGE_CURVE ( 'NONE', #228, #174, #204, .T. ) ;
#101 = CC_DESIGN_APPROVAL ( #197, ( #17 ) ) ;
#102 = APPROVAL_ROLE ( '' ) ;
#103 = AXIS2_PLACEMENT_3D ( 'NONE', #16, #163, #184 ) ;
#104 = ADVANCED_FACE ( 'NONE', ( #139 ), #118, .T. ) ;
#105 = VECTOR ( 'NONE', #25, 1000.000000000000000 ) ;
#106 = AXIS2_PLACEMENT_3D ( 'NONE', #116, #121, #4 ) ;
#107 = CARTESIAN_POINT ( 'NONE',  ( 0.000000000000000000, 0.000000000000000000, 7.000000000000000000 ) ) ;
#108 = VERTEX_POINT ( 'NONE', #237 ) ;
#109 = EDGE_CURVE ( 'NONE', #301, #174, #265, .T. ) ;
#110 = UNCERTAINTY_MEASURE_WITH_UNIT (LENGTH_MEASURE( 1.000000000000000082E-05 ), #177, 'distance_accuracy_value', 'NONE');
#111 = ORIENTED_EDGE ( 'NONE', *, *, #277, .T. ) ;
#112 = EDGE_LOOP ( 'NONE', ( #252, #20, #113, #124 ) ) ;
#113 = ORIENTED_EDGE ( 'NONE', *, *, #27, .T. ) ;
#114 = PLANE ( 'NONE',  #210 ) ;
#115 = EDGE_CURVE ( 'NONE', #295, #207, #229, .T. ) ;
#116 = CARTESIAN_POINT ( 'NONE',  ( 0.000000000000000000, 0.000000000000000000, 7.199999999999984190 ) ) ;
#117 = CIRCLE ( 'NONE', #157, 9.000000000000000000 ) ;
#118 = CYLINDRICAL_SURFACE ( 'NONE', #128, 6.099999999999999645 ) ;
#119 = APPLICATION_CONTEXT ( 'configuration controlled 3d designs of mechanical parts and assemblies' ) ;
#120 = CC_DESIGN_PERSON_AND_ORGANIZATION_ASSIGNMENT ( #131, #274, ( #267 ) ) ;
#121 = DIRECTION ( 'NONE',  ( 0.000000000000000000, 0.000000000000000000, 1.000000000000000000 ) ) ;
#122 = FACE_OUTER_BOUND ( 'NONE', #71, .T. ) ;
#123 = LOCAL_TIME ( 11, 29, 23.00000000000000000, #180 ) ;
#124 = ORIENTED_EDGE ( 'NONE', *, *, #151, .F. ) ;
#125 = ADVANCED_FACE ( 'NONE', ( #234 ), #203, .F. ) ;
#126 = APPLICATION_CONTEXT ( 'configuration controlled 3d designs of mechanical parts and assemblies' ) ;
#127 = COORDINATED_UNIVERSAL_TIME_OFFSET ( 1, 0, .AHEAD. ) ;
#128 = AXIS2_PLACEMENT_3D ( 'NONE', #52, #77, #49 ) ;
#129 = ORIENTED_EDGE ( 'NONE', *, *, #80, .F. ) ;
#130 = MECHANICAL_CONTEXT ( 'NONE', #119, 'mechanical' ) ;
#131 = PERSON_AND_ORGANIZATION ( #219, #291 ) ;
#132 = SHAPE_DEFINITION_REPRESENTATION ( #2, #44 ) ;
#133 = CARTESIAN_POINT ( 'NONE',  ( 0.000000000000000000, 0.000000000000000000, 7.000000000000000000 ) ) ;
#134 = LOCAL_TIME ( 11, 29, 23.00000000000000000, #147 ) ;
#135 = VERTEX_POINT ( 'NONE', #167 ) ;
#136 = DIRECTION ( 'NONE',  ( 1.000000000000000000, 0.000000000000000000, 0.000000000000000000 ) ) ;
#137 = DIRECTION ( 'NONE',  ( 1.000000000000000000, 0.000000000000000000, 0.000000000000000000 ) ) ;
#138 = CARTESIAN_POINT ( 'NONE',  ( 0.000000000000000000, 0.000000000000000000, 7.000000000000000000 ) ) ;
#139 = FACE_OUTER_BOUND ( 'NONE', #112, .T. ) ;
#140 = APPROVAL ( #275, 'NEURÈENÝ' ) ;
#141 = DIRECTION ( 'NONE',  ( 0.000000000000000000, 0.000000000000000000, 1.000000000000000000 ) ) ;
#142 = DIRECTION ( 'NONE',  ( 0.000000000000000000, 0.000000000000000000, 1.000000000000000000 ) ) ;
#143 = CARTESIAN_POINT ( 'NONE',  ( 0.000000000000000000, 0.000000000000000000, 0.000000000000000000 ) ) ;
#144 = CARTESIAN_POINT ( 'NONE',  ( 6.099999999999999645, 7.470345474798854293E-16, 1006.999999999999886 ) ) ;
#145 = APPROVAL_ROLE ( '' ) ;
#146 = AXIS2_PLACEMENT_3D ( 'NONE', #191, #141, #75 ) ;
#147 = COORDINATED_UNIVERSAL_TIME_OFFSET ( 1, 0, .AHEAD. ) ;
#148 = ORIENTED_EDGE ( 'NONE', *, *, #156, .F. ) ;
#149 = CC_DESIGN_DATE_AND_TIME_ASSIGNMENT ( #65, #40, ( #37 ) ) ;
#150 = COORDINATED_UNIVERSAL_TIME_OFFSET ( 1, 0, .AHEAD. ) ;
#151 = EDGE_CURVE ( 'NONE', #248, #21, #165, .T. ) ;
#152 = VECTOR ( 'NONE', #268, 1000.000000000000000 ) ;
#153 = PERSON_AND_ORGANIZATION ( #219, #291 ) ;
#154 = ORIENTED_EDGE ( 'NONE', *, *, #239, .F. ) ;
#155 = ORIENTED_EDGE ( 'NONE', *, *, #27, .F. ) ;
#156 = EDGE_CURVE ( 'NONE', #135, #207, #42, .T. ) ;
#157 = AXIS2_PLACEMENT_3D ( 'NONE', #215, #164, #7 ) ;
#158 = DIRECTION ( 'NONE',  ( 0.000000000000000000, 0.000000000000000000, 1.000000000000000000 ) ) ;
#159 = DIRECTION ( 'NONE',  ( -0.000000000000000000, -0.000000000000000000, -1.000000000000000000 ) ) ;
#160 = CLOSED_SHELL ( 'NONE', ( #287, #104, #244, #66, #306, #216, #282, #95, #125 ) ) ;
#161 = CARTESIAN_POINT ( 'NONE',  ( 0.000000000000000000, 0.000000000000000000, 1006.999999999999886 ) ) ;
#162 = CC_DESIGN_APPROVAL ( #140, ( #267 ) ) ;
#163 = DIRECTION ( 'NONE',  ( 1.224646799147353207E-16, 1.000000000000000000, -0.000000000000000000 ) ) ;
#164 = DIRECTION ( 'NONE',  ( 0.000000000000000000, 0.000000000000000000, 1.000000000000000000 ) ) ;
#165 = LINE ( 'NONE', #307, #72 ) ;
#166 = CC_DESIGN_PERSON_AND_ORGANIZATION_ASSIGNMENT ( #242, #297, ( #37 ) ) ;
#167 = CARTESIAN_POINT ( 'NONE',  ( 6.099999999999999645, 7.470345474798854293E-16, 7.199999999999984190 ) ) ;
#168 = DIRECTION ( 'NONE',  ( 1.000000000000000000, 0.000000000000000000, -0.000000000000000000 ) ) ;
#169 = AXIS2_PLACEMENT_3D ( 'NONE', #81, #63, #272 ) ;
#170 = AXIS2_PLACEMENT_3D ( 'NONE', #303, #233, #225 ) ;
#171 = CALENDAR_DATE ( 2022, 20, 6 ) ;
#172 = EDGE_CURVE ( 'NONE', #21, #135, #255, .T. ) ;
#173 = DATE_TIME_ROLE ( 'creation_date' ) ;
#174 = VERTEX_POINT ( 'NONE', #192 ) ;
#175 = FACE_BOUND ( 'NONE', #208, .T. ) ;
#176 = FACE_OUTER_BOUND ( 'NONE', #257, .T. ) ;
#177 =( LENGTH_UNIT ( ) NAMED_UNIT ( * ) SI_UNIT ( .MILLI., .METRE. ) );
#178 = EDGE_LOOP ( 'NONE', ( #205, #155, #70, #284 ) ) ;
#179 = APPROVAL_ROLE ( '' ) ;
#180 = COORDINATED_UNIVERSAL_TIME_OFFSET ( 1, 0, .AHEAD. ) ;
#181 = EDGE_CURVE ( 'NONE', #276, #301, #91, .T. ) ;
#182 = CARTESIAN_POINT ( 'NONE',  ( 0.000000000000000000, 0.000000000000000000, 1006.999999999999886 ) ) ;
#183 = ORIENTED_EDGE ( 'NONE', *, *, #181, .F. ) ;
#184 = DIRECTION ( 'NONE',  ( -1.000000000000000000, 1.224646799147353454E-16, 0.000000000000000000 ) ) ;
#185 = FACE_OUTER_BOUND ( 'NONE', #9, .T. ) ;
#186 = CIRCLE ( 'NONE', #201, 6.299999999999998934 ) ;
#187 = CC_DESIGN_DATE_AND_TIME_ASSIGNMENT ( #199, #173, ( #17 ) ) ;
#188 = ORIENTED_EDGE ( 'NONE', *, *, #109, .T. ) ;
#189 = APPROVAL_PERSON_ORGANIZATION ( #221, #197, #102 ) ;
#190 = CIRCLE ( 'NONE', #146, 6.099999999999999645 ) ;
#191 = CARTESIAN_POINT ( 'NONE',  ( 0.000000000000000000, 0.000000000000000000, 1006.999999999999886 ) ) ;
#192 = CARTESIAN_POINT ( 'NONE',  ( -9.000000000000000000, 0.000000000000000000, 0.000000000000000000 ) ) ;
#193 = FACE_OUTER_BOUND ( 'NONE', #302, .T. ) ;
#194 = FACE_OUTER_BOUND ( 'NONE', #300, .T. ) ;
#195 = TOROIDAL_SURFACE ( 'NONE', #96, 6.299999999999998934, 0.2000000000000000111 ) ;
#196 = CARTESIAN_POINT ( 'NONE',  ( 0.000000000000000000, 0.000000000000000000, 7.000000000000000000 ) ) ;
#197 = APPROVAL ( #79, 'NEURÈENÝ' ) ;
#198 = CIRCLE ( 'NONE', #285, 6.099999999999999645 ) ;
#199 = DATE_AND_TIME ( #98, #214 ) ;
#200 = APPLICATION_PROTOCOL_DEFINITION ( 'international standard', 'config_control_design', 1994, #119 ) ;
#201 = AXIS2_PLACEMENT_3D ( 'NONE', #133, #68, #137 ) ;
#202 =( NAMED_UNIT ( * ) PLANE_ANGLE_UNIT ( ) SI_UNIT ( $, .RADIAN. ) );
#203 = TOROIDAL_SURFACE ( 'NONE', #106, 6.299999999999998934, 0.2000000000000000111 ) ;
#204 = LINE ( 'NONE', #67, #14 ) ;
#205 = ORIENTED_EDGE ( 'NONE', *, *, #55, .F. ) ;
#206 = CARTESIAN_POINT ( 'NONE',  ( 0.000000000000000000, 0.000000000000000000, 7.000000000000000000 ) ) ;
#207 = VERTEX_POINT ( 'NONE', #50 ) ;
#208 = EDGE_LOOP ( 'NONE', ( #36, #222 ) ) ;
#209 = DIRECTION ( 'NONE',  ( 0.000000000000000000, 0.000000000000000000, 1.000000000000000000 ) ) ;
#210 = AXIS2_PLACEMENT_3D ( 'NONE', #290, #142, #168 ) ;
#211 = DIRECTION ( 'NONE',  ( -0.000000000000000000, -0.000000000000000000, -1.000000000000000000 ) ) ;
#212 = DIRECTION ( 'NONE',  ( -0.000000000000000000, -0.000000000000000000, -1.000000000000000000 ) ) ;
#213 = CARTESIAN_POINT ( 'NONE',  ( -9.000000000000000000, 0.000000000000000000, 7.000000000000000000 ) ) ;
#214 = LOCAL_TIME ( 11, 29, 23.00000000000000000, #150 ) ;
#215 = CARTESIAN_POINT ( 'NONE',  ( 0.000000000000000000, 0.000000000000000000, 0.000000000000000000 ) ) ;
#216 = ADVANCED_FACE ( 'NONE', ( #193 ), #114, .F. ) ;
#217 = AXIS2_PLACEMENT_3D ( 'NONE', #107, #88, #136 ) ;
#218 = PLANE ( 'NONE',  #169 ) ;
#219 = PERSON ( 'NEURÈENÝ', 'NEURÈENÝ', 'NEURÈENÝ', ('NEURÈENÝ'), ('NEURÈENÝ'), ('NEURÈENÝ') ) ;
#220 = CC_DESIGN_PERSON_AND_ORGANIZATION_ASSIGNMENT ( #249, #35, ( #17 ) ) ;
#221 = PERSON_AND_ORGANIZATION ( #219, #291 ) ;
#222 = ORIENTED_EDGE ( 'NONE', *, *, #115, .T. ) ;
#223 = SECURITY_CLASSIFICATION_LEVEL ( 'unclassified' ) ;
#224 = APPROVAL_STATUS ( 'not_yet_approved' ) ;
#225 = DIRECTION ( 'NONE',  ( 1.000000000000000000, 0.000000000000000000, 0.000000000000000000 ) ) ;
#226 = CARTESIAN_POINT ( 'NONE',  ( -6.099999999999999645, 0.000000000000000000, 7.199999999999984190 ) ) ;
#227 = PERSON_AND_ORGANIZATION ( #219, #291 ) ;
#228 = VERTEX_POINT ( 'NONE', #213 ) ;
#229 = CIRCLE ( 'NONE', #58, 6.299999999999998934 ) ;
#230 = ORIENTED_EDGE ( 'NONE', *, *, #239, .T. ) ;
#231 =( GEOMETRIC_REPRESENTATION_CONTEXT ( 3 ) GLOBAL_UNCERTAINTY_ASSIGNED_CONTEXT ( ( #110 ) ) GLOBAL_UNIT_ASSIGNED_CONTEXT ( ( #177, #202, #56 ) ) REPRESENTATION_CONTEXT ( 'NONE', 'WORKASPACE' ) );
#232 = AXIS2_PLACEMENT_3D ( 'NONE', #1, #26, #269 ) ;
#233 = DIRECTION ( 'NONE',  ( 0.000000000000000000, 0.000000000000000000, 1.000000000000000000 ) ) ;
#234 = FACE_OUTER_BOUND ( 'NONE', #178, .T. ) ;
#235 = DIRECTION ( 'NONE',  ( -1.000000000000000000, 0.000000000000000000, 0.000000000000000000 ) ) ;
#236 = CARTESIAN_POINT ( 'NONE',  ( 0.000000000000000000, 0.000000000000000000, 7.000000000000000000 ) ) ;
#237 = CARTESIAN_POINT ( 'NONE',  ( 6.099999999999999645, 7.470345474798854293E-16, 1006.999999999999886 ) ) ;
#238 = CIRCLE ( 'NONE', #30, 9.000000000000000000 ) ;
#239 = EDGE_CURVE ( 'NONE', #248, #108, #190, .T. ) ;
#240 = DIRECTION ( 'NONE',  ( 0.000000000000000000, 0.000000000000000000, 1.000000000000000000 ) ) ;
#241 = AXIS2_PLACEMENT_3D ( 'NONE', #266, #240, #97 ) ;
#242 = PERSON_AND_ORGANIZATION ( #219, #291 ) ;
#243 = CALENDAR_DATE ( 2022, 20, 6 ) ;
#244 = ADVANCED_FACE ( 'NONE', ( #122 ), #73, .T. ) ;
#245 = CALENDAR_DATE ( 2022, 20, 6 ) ;
#246 = CC_DESIGN_SECURITY_CLASSIFICATION ( #37, ( #267 ) ) ;
#247 = DIRECTION ( 'NONE',  ( 1.000000000000000000, 0.000000000000000000, 0.000000000000000000 ) ) ;
#248 = VERTEX_POINT ( 'NONE', #293 ) ;
#249 = PERSON_AND_ORGANIZATION ( #219, #291 ) ;
#250 = ORIENTED_EDGE ( 'NONE', *, *, #80, .T. ) ;
#251 = EDGE_CURVE ( 'NONE', #108, #135, #28, .T. ) ;
#252 = ORIENTED_EDGE ( 'NONE', *, *, #61, .F. ) ;
#253 = APPROVAL_DATE_TIME ( #280, #47 ) ;
#254 = ORIENTED_EDGE ( 'NONE', *, *, #100, .F. ) ;
#255 = CIRCLE ( 'NONE', #241, 6.099999999999999645 ) ;
#256 = DIRECTION ( 'NONE',  ( -1.000000000000000000, 0.000000000000000000, 0.000000000000000000 ) ) ;
#257 = EDGE_LOOP ( 'NONE', ( #250, #64 ) ) ;
#258 = DIRECTION ( 'NONE',  ( 0.000000000000000000, 0.000000000000000000, 1.000000000000000000 ) ) ;
#259 = APPROVAL_PERSON_ORGANIZATION ( #227, #47, #179 ) ;
#260 = CARTESIAN_POINT ( 'NONE',  ( 0.000000000000000000, 0.000000000000000000, 7.199999999999984190 ) ) ;
#261 = PRODUCT ( '2bec', '2bec', '', ( #130 ) ) ;
#262 = DIRECTION ( 'NONE',  ( 1.000000000000000000, 0.000000000000000000, 0.000000000000000000 ) ) ;
#263 = CC_DESIGN_PERSON_AND_ORGANIZATION_ASSIGNMENT ( #153, #38, ( #267 ) ) ;
#264 = AXIS2_PLACEMENT_3D ( 'NONE', #143, #209, #262 ) ;
#265 = CIRCLE ( 'NONE', #264, 9.000000000000000000 ) ;
#266 = CARTESIAN_POINT ( 'NONE',  ( 0.000000000000000000, 0.000000000000000000, 7.199999999999984190 ) ) ;
#267 = PRODUCT_DEFINITION_FORMATION_WITH_SPECIFIED_SOURCE ( 'LIBOVOLNÝ', '', #261, .NOT_KNOWN. ) ;
#268 = DIRECTION ( 'NONE',  ( -0.000000000000000000, -0.000000000000000000, -1.000000000000000000 ) ) ;
#269 = DIRECTION ( 'NONE',  ( -1.000000000000000000, 0.000000000000000000, 0.000000000000000000 ) ) ;
#270 = DATE_AND_TIME ( #243, #134 ) ;
#271 = CC_DESIGN_APPROVAL ( #47, ( #37 ) ) ;
#272 = DIRECTION ( 'NONE',  ( 1.000000000000000000, 0.000000000000000000, -0.000000000000000000 ) ) ;
#273 = ORIENTED_EDGE ( 'NONE', *, *, #277, .F. ) ;
#274 = PERSON_AND_ORGANIZATION_ROLE ( 'design_supplier' ) ;
#275 = APPROVAL_STATUS ( 'not_yet_approved' ) ;
#276 = VERTEX_POINT ( 'NONE', #5 ) ;
#277 = EDGE_CURVE ( 'NONE', #174, #301, #117, .T. ) ;
#278 = CALENDAR_DATE ( 2022, 20, 6 ) ;
#279 = FACE_OUTER_BOUND ( 'NONE', #86, .T. ) ;
#280 = DATE_AND_TIME ( #278, #123 ) ;
#281 = ORIENTED_EDGE ( 'NONE', *, *, #61, .T. ) ;
#282 = ADVANCED_FACE ( 'NONE', ( #194 ), #53, .T. ) ;
#283 = ORIENTED_EDGE ( 'NONE', *, *, #10, .F. ) ;
#284 = ORIENTED_EDGE ( 'NONE', *, *, #115, .F. ) ;
#285 = AXIS2_PLACEMENT_3D ( 'NONE', #182, #158, #304 ) ;
#286 = ORIENTED_EDGE ( 'NONE', *, *, #172, .T. ) ;
#287 = ADVANCED_FACE ( 'NONE', ( #92 ), #195, .F. ) ;
#288 = AXIS2_PLACEMENT_3D ( 'NONE', #292, #93, #289 ) ;
#289 = DIRECTION ( 'NONE',  ( 0.000000000000000000, 0.000000000000000000, -1.000000000000000000 ) ) ;
#290 = CARTESIAN_POINT ( 'NONE',  ( 0.000000000000000000, 0.000000000000000000, 0.000000000000000000 ) ) ;
#291 = ORGANIZATION ( 'NEURÈENÝ', 'NEURÈENÝ', '' ) ;
#292 = CARTESIAN_POINT ( 'NONE',  ( 6.299999999999998934, 0.000000000000000000, 7.199999999999984190 ) ) ;
#293 = CARTESIAN_POINT ( 'NONE',  ( -6.099999999999999645, 0.000000000000000000, 1006.999999999999886 ) ) ;
#294 = DIRECTION ( 'NONE',  ( 1.000000000000000000, 0.000000000000000000, 0.000000000000000000 ) ) ;
#295 = VERTEX_POINT ( 'NONE', #78 ) ;
#296 = AXIS2_PLACEMENT_3D ( 'NONE', #236, #211, #235 ) ;
#297 = PERSON_AND_ORGANIZATION_ROLE ( 'classification_officer' ) ;
#298 = DATE_AND_TIME ( #171, #76 ) ;
#299 = CARTESIAN_POINT ( 'NONE',  ( 0.000000000000000000, 0.000000000000000000, 0.000000000000000000 ) ) ;
#300 = EDGE_LOOP ( 'NONE', ( #43, #154, #12, #286 ) ) ;
#301 = VERTEX_POINT ( 'NONE', #60 ) ;
#302 = EDGE_LOOP ( 'NONE', ( #273, #59 ) ) ;
#303 = CARTESIAN_POINT ( 'NONE',  ( 0.000000000000000000, 0.000000000000000000, 7.199999999999984190 ) ) ;
#304 = DIRECTION ( 'NONE',  ( 1.000000000000000000, 0.000000000000000000, 0.000000000000000000 ) ) ;
#305 = ORIENTED_EDGE ( 'NONE', *, *, #172, .F. ) ;
#306 = ADVANCED_FACE ( 'NONE', ( #175, #176 ), #218, .T. ) ;
#307 = CARTESIAN_POINT ( 'NONE',  ( -6.099999999999999645, 0.000000000000000000, 1006.999999999999886 ) ) ;
ENDSEC;
END-ISO-10303-21;
